>
 >
Clandestino

Clandestino Chords

I Ratti Della Sabina - Clandestino chords, tabs, tablatures, lyrics

Guitar lessons | Add/correct | Request | Top 50 tabs Artists:  A B C D E F G H I J K L M N O P Q R S T U V W X Y Z 0-9

Clandestino Chords – I Ratti Della Sabina

CD, Sheet music, Poster

Do you like Clandestino? Share with your friends now
ChordsUkulele
    Clandestino
(Ratti Della Sabina)
_____________________________________________________________________________________________



intro:
|    |    | G  | G  |

       C        G                D          G
E speriamo speriamo che non mi veda il capitano
        C              G          D           G
perchè son partito clandestino su questa nave
       C        G                D           G
e speriamo speriamo che non lo venga a sapere
        C           G            D              G
perchè sono un sognatore e lui proprio non mi può vedere
C             G                 D        G
   non lo considera un bel mestiere,
           C            G           D         
non mi considera un passeggero regolare
     G                 C          G         D           G
di quelli che hanno i lasciapassare per la porta principale
        C            G
io non sono come gli altri
   D             [G]
io no che non lo posso fare


   (G)           C     G       D             C      G       D
e|---------7-||--8-----7-----|-----------7-|-8-10-8-7-8-7-|-----------7--||
B|------10---||--------------|-10-----10---|--------------|-10-----10----||
G|-----------||*-------------|-------------|--------------|-------------*||
D|-----------||--------------|-------------|--------------|--------------||
A|-----------||*-------------|-------------|--------------|-------------*||
E|-----------||--------------|-------------|--------------|--------------||

     C           G          D          G
e allora se si vuole continuare a navigare
   C           G           D               G
bisogna farlo di nascosto anche se hai un mondo da dare
C         G       D          C       G         D       G
che vive nel tuo cuore  che vive lontano dal grande rumore
    C          G    D            G         C                   D                 F#m  D
che fa quella gente che sta sul ponte e insegue da sempre il grande miraggio del niente


   (F#m) (D)      A      E       F#    D          A       E
e|-9-----10-9-7-|-9-7----7-----|-9-----10-12-14-|-12-10-9-7-----|
B|--------------|-----10-------|----------------|---------------|
G|--------------|--------------|----------------|---------------|
D|--------------|--------------|----------------|---------------|
A|--------------|--------------|----------------|---------------|
E|--------------|--------------|----------------|---------------|

         F#m               D               A              E
io preferisco restare qui sotto e viver così questa vita mia
          D                     A                  E                   F#m
certo si rischia ma è più dignitoso che cedere al fascino vuoto dell'ipocrisia
D                       A             E         F#m
voglio poi dire che il tempo mi avrà fatto abituare,
            D             A              E              F#m
ma io non trovo nemmeno brutta la stiva buia di questa nave
         D                 A           E              F#m
spero comunque che il capitano non mi venga mai a cercare
           D               A           E           F#m        
perchè si sa che i clandestini poi li buttano nel mare
                D             A             E                 F#m
e giù c'è già pronto il pescecane che approfitta della situazione:
            D              A                 E               F#m
mette una croce sui tuoi giorni e la sua coscienza non fa obiezione.


   (F#m)     D             A            E
e|-----------------------|---9-9-9-10-9-7-9-7----7----|
B|-7-----7-9-10----------|--------------------10---10-|
G|-----------------------|----------------------------|
D|-----------------------|----------------------------|
A|-----------------------|----------------------------|
E|-----------------------|----------------------------|

   F#m       D             A            E
e|-----------------------|---9-9-9-10-9-7------7------|
B|-7-----7-9-10----------|----------------10-9---10-9-|
G|-----------------------|----------------------------|
D|-----------------------|----------------------------|
A|-----------------------|----------------------------|
E|-----------------------|----------------------------|

   F#m       D             A            E
e|-----------------------|---9-9-9-10-9-7-9-7----7----|
B|-7-----7-9-10----------|--------------------10---10-|
G|-----------------------|----------------------------|
D|-----------------------|----------------------------|
A|-----------------------|----------------------------|
E|-----------------------|----------------------------|

   F#m       D             A            E
e|-----------------------|---9-9-9-10-9-7-------------|
B|-7-----7-9-10----------|--------------------10------|
G|-----------------------|----------------------------|
D|-----------------------|----------------------------|
A|-----------------------|----------------------------|
E|-----------------------|----------------------------|

   E         C             C          G
e|-----------------------|-------------------------0--|
B|-9----7----5-----------|---------------/8-----------|
G|--------------------/5-|-----------/7-------7-------|
D|-----------------------|----------------------------|
A|-----------------------|----------------------------|
E|-----------------------|----------------------------|


| G  | G  |

      C         G            D            G
E speriamo speriamo che non venga il capitano
     C           G              D      G
a rubare questa notte dai miei sogni
         C          G              D         G
quella stella così bella che mi illumina la via,
        C            G       D        D       G       
dolce sposa del mio tempo,  dolce signora Utopia.


[tempo in 3/4]

  (G)              Em                C                    Em  
e|-7-----7h8p7-5-|---------8-10-10-|-12----12-12-8h10p8-|-7-----7-8-10p8p7-5-|
B|---------------|-8-----8---------|--------------------|--------------------|
G|---------------|-----------------|--------------------|--------------------|
D|---------------|-----------------|--------------------|--------------------|
A|---------------|-----------------|--------------------|--------------------|
E|---------------|-----------------|--------------------|--------------------|
   '  '  '         '  '  '           '  '  '              '  '  '
   G               Em                C                    Em  
e|-7-----7h8p7-5-|---------8-10-10-|-12----12-12-8h10p8-|-7-----7-8-10p8p7-7-|
B|---------------|-8-----8---------|--------------------|--------------------|
G|---------------|-----------------|--------------------|--------------------|
D|---------------|-----------------|--------------------|--------------------|
A|---------------|-----------------|--------------------|--------------------|
E|---------------|-----------------|--------------------|--------------------|
   '  '  '         '  '  '           '  '  '              '  '  '
   G               Em                C                    Em  
e|-10----7h8p7-5-|-7-------8-10-10-|-12----12-12-8h10p8-|-7-----7-8-10p8p7-5-|
B|---------------|-------8---------|--------------------|--------------------|
G|---------------|-----------------|--------------------|--------------------|
D|---------------|-----------------|--------------------|--------------------|
A|---------------|-----------------|--------------------|--------------------|
E|---------------|-----------------|--------------------|--------------------|
   '  '  '         '  '  '           '  '  '              '  '  '
   G               Em                C 
e|-10----7h8p7-5-|-7-------8-10-10-|b12------10-|
B|---------------|-------8---------|------------|
G|---------------|-----------------|------------|
D|---------------|-----------------|------------|
A|---------------|-----------------|------------|
E|---------------|-----------------|------------|
   '  '  '         '  '  '           '  '  '
   Em              Em              Em            Em
e|-7------8-7------7------8-7------10-8-7-----------------|
B|---10-8-----10-8---10-8-----10-8--------10-8-7----------|
G|-----------------------------------------------9--------|
D|--------------------------------------------------------|
A|--------------------------------------------------------|
E|--------------------------------------------------------|


_____________________________________________________________________________________________





Comments


Popular I Ratti Della Sabina tabs & chords
A Oriente Chords
Il Funambolo Chords
L Uomo Che Piantava Alberi Chords
Lo Scemo Del Villaggio Chords
A Oriente Ukulele
A Passo Lento Ukulele
Il Funambolo Ukulele
L Uomo Che Piantava Alberi Ukulele
La Morale Dei Briganti Ukulele
Lo Scemo Del Villaggio Ukulele


Song lyrics



↑ Back to top | Tablatures and chords are parodies/interpretations of the original songs. You may use it for private study, scholarship, research or language learning purposes only
© 2014 AZChords.com Contact us | Privacy policy | DMCA | Add/correct tabs | Request tabs | Top 50 tabs