» » »

Iration, Work It Out Tabs (ver.1)

Artists:  A B C D E F G H I J K L M N O P Q R S T U V W X Y Z # 

Work It Out Tabs (ver.1)

Iration Tabs
Rating:
0/5 (0 votes)
Work It Out lessons Tabs too difficult? Try these video lessons and learn fast
                --------------------------------------------------------------------
--------------------------------------------------------------------

Tuning:standard!

The strum pattern is pretty easy if you listen to it, but anyways
its: down (rest) down, down up.

e|--6--------6--6-6----5----5-5-5-----3---3-3-3----------------------|
B|--6--------6--6-6----6----6-6-6-----4---4-4-4----------------------|
G|--7—(rest)-   7--7-7----7—--7-7-7-----5---5-5-5—(rest) ------------|
D|--8--------8--8-8----7--- 7-7-7-----5---5-5-5----------------------|
A|--8--------8--8-8----5----5-5-5-----3---3-3-3----------------------|
E|--6--------6--6-6----x----x-x-x-----x---x-x-x----------------------|
That’s the whole thing.

Then theres a small riff. Something like:
e|------------------------------------------------------------------|
B|-11---------------------------------------------------------------|
G|------------------------------------------------------------------|
D|-----10--8--------------------------------------------------------|
A|------------------------------------------------------------------|
E|------------------------------------------------------------------|
            
Submit corrections

comments powered by Disqus
↑ Back to top | Iration Tabs for Work It Out. Lyrics for acoustic guitar and electric guitar. Tablatures and chords are parodies/interpretations of the original songs. You may use it for private study, scholarship, research or language learning purposes only