>
 >
Turn Around

Turn Around Guitar Tabs

Iration - Turn Around chords, tabs, tablatures, lyrics

Guitar lessons | Add/correct | Request | Top 50 tabs Artists:  A B C D E F G H I J K L M N O P Q R S T U V W X Y Z 0-9

Turn Around Guitar Tabs – Iration

CD, Sheet music, Poster

Do you like Turn Around? Share with your friends now
Tabs
-------------------------------------------------------------------------------
-------------------------------------------------------------------------------

Awesome song off of Iration's Time Bomb album, pick it up if you haven't already. 
Pretty simple to play. All chords are strummed reggae/ska style. 
Listen to the song for timing.

Entire song is comprised of four chords:

Fm  e|-1-| and e|-8-|
    B|-1-|     B|-9-|
    G|-1-|     G|-10|
    D|-3-|     D|-10|
    A|-3-|     A|-8-|
    E|-1-|     E|---|

G#  e|-4-|
    B|-4-|
    G|-5-|
    D|-6-|
    A|-6-|
    E|-4-|

D#  e|-6-|
    B|-8-|
    G|-8-|
    D|-8-|
    A|-6-|
    E|---|

A#m e|-6-|
    B|-6-|
    G|-6-|
    D|-8-|
    A|-8-|
    E|-6-|

Intro (distorted):

  Fm               G#               D#               A#m
e|--------1---x---|--------4---x---|--------6---x---|--------6---x---|
B|--------1---x---|--------4---x---|--------8---x---|--------6---x---|
G|--------1---x---|--------5---x---|--------8---x---|--------6---x---|
D|--------3---x---|--------6---x---|--------8---x---|--------8---x---| x2
A|--------3---x---|--------6---x---|--6--6--6---x---|--------8---x---|
E|--1--1--1---x---|--4--4--4---x---|----------------|--6--6--6---x---|


Main Riff (clean):

Guitar 1 (lead):
e|-------------8-8--11-11------------------------------|
B|-9-9--11-11--------------11-11--9-11-11b13r11--9-11--|
G|-----------------------------------------------------|
D|-----------------------------------------------------| x2
A|-----------------------------------------------------|
E|-----------------------------------------------------|

End on:
e|-----|
B|-9~~-|
G|-----|
D|-----|
A|-----|
E|-----|

Guitar 2:
  Fm          G#          D#          A#m
e|---1---1---|---4---4---|---6---6---|---6---6---|
B|---1---1---|---4---4---|---8---8---|---6---6---|
G|---1---1---|---5---5---|---8---8---|---6---6---|
D|---3---3---|---6---6---|---8---8---|---8---8---| x2
A|---3---3---|---6---6---|---6---6---|---8---8---|
E|---1---1---|---4---4---|-----------|---6---6---|


First Verse:

It's hard I know...
  Fm          G#          D#          A#m
e|---1---1---|---4---4---|---6---6---|---6---6---|
B|---1---1---|---4---4---|---8---8---|---6---6---|
G|---1---1---|---5---5---|---8---8---|---6---6---|
D|---3---3---|---6---6---|---8---8---|---8---8---| x2
A|---3---3---|---6---6---|---6---6---|---8---8---|
E|---1---1---|---4---4---|-----------|---6---6---|

I'm changing my ways...
  Fm          G#          D#          A#m
e|---1---1---|---4---4---|---6---6---|---6---6---|
B|---1---1---|---4---4---|---8---8---|---6---6---|
G|---1---1---|---5---5---|---8---8---|---6---6---|
D|---3---3---|---6---6---|---8---8---|---8---8---| x2
A|---3---3---|---6---6---|---6---6---|---8---8---|
E|---1---1---|---4---4---|-----------|---6---6---|

I'm dying inside...
  Fm              G#              D#              A#m
e|---8--8----8--8----|---4-4---4-4---|---6-6---6-6---|---6-6---6-6---|
B|---9--9----9--9----|---4-4---4-4---|---8-8---8-8---|---6-6---6-6---|
G|---10-10---10-10---|---5-5---5-5---|---8-8---8-8---|---6-6---6-6---|
D|---10-10---10-10---|---6-6---6-6---|---8-8---8-8---|---8-8---8-8---| x2
A|---8--8----8--8----|---6-6---6-6---|---6-6---6-6---|---8-8---8-8---|
E|-------------------|---4-4---4-4---|---------------|---6-6---6-6---|

Making it clear before...
  Fm                  G#              D#              A#m
e|---8--8----8--8----|---4-4---4-4---|---6-6---6-6---|---6-6---6-6---|
B|---9--9----9--9----|---4-4---4-4---|---8-8---8-8---|---6-6---6-6---|
G|---10-10---10-10---|---5-5---5-5---|---8-8---8-8---|---6-6---6-6---|
D|---10-10---10-10---|---6-6---6-6---|---8-8---8-8---|---8-8---8-8---| x2
A|---8--8----8--8----|---6-6---6-6---|---6-6---6-6---|---8-8---8-8---|
E|-------------------|---4-4---4-4---|---------------|---6-6---6-6---|


Chorus:

Guitar 1:
  Fm                 G#             D#             A#m
e|--/1---1--11--|--/4---4--44--|--/6---6--66--|--/6---6--66--|
B|--/1---1--11--|--/4---4--44--|--/8---8--88--|--/6---6--66--|
G|--/1---1--11--|--/5---5--55--|--/8---8--88--|--/6---6--66--|
D|--/3---3--33--|--/6---6--66--|--/8---8--88--|--/8---8--88--| x4
A|--/3---3--33--|--/6---6--66--|--/6---6--66--|--/8---8--88--|
E|--/1---1--11--|--/4---4--44--|--------------|--/6---6--66--|

Guitar 2 (lead):
e|-------------8-8--11-11------------------------------|
B|-9-9--11-11--------------11-11--9-11-11b13r11--9-11--|
G|-----------------------------------------------------|
D|-----------------------------------------------------| x4
A|-----------------------------------------------------|
E|-----------------------------------------------------|

End on:
e|-----|
B|-9~~-|
G|-----|
D|-----|
A|-----|
E|-----|


Fill (distorted):
e|---------------------|---------------------|--11-11---11-11--|
B|--11-9-8-------------|--11-9-8-------------|--8--8----8--8---|
G|---------8-10b12r10--|---------8-10b12r10--|-----------------|
D|---------------------|---------------------|-----------------| x2
A|---------------------|---------------------|-----------------|
E|---------------------|---------------------|-----------------|


Verse 2 and Chorus 2 are the same as the first.


Solo (distorted): 
(Special thanks to forum user MrBillion for helping with this)
e|---------------------|---------------------|--11-11---11-11--|
B|--11-9-8-------------|--11-9-8-------------|--8--8----8--8---|
G|---------8-10b12r10--|---------8-10b12r10--|-----------------|
D|---------------------|---------------------|-----------------| x2
A|---------------------|---------------------|-----------------|
E|---------------------|---------------------|-----------------|

e|--8----------------------|-------------------------|
B|--11b13----11-11-11--11--|--8-9-11-9-8-------------|
G|-------------------------|-------------8-10b12r10--|
D|-------------------------|-------------------------|
A|-------------------------|-------------------------|
E|-------------------------|-------------------------|

e|---------------------------|------------------------|
B|---------------------------|-----8--11-11-11--9--8--|
G|--8h10-8h10-8h10/12--10-8--|--10--------------------|
D|---------------------------|------------------------|
A|---------------------------|------------------------|
E|---------------------------|------------------------|

e|--8-------------|--11--9--8~~--|
B|--11b13--9--8~~-|--------------|
G|----------------|--------------|
D|----------------|--------------|
A|----------------|--------------|
E|----------------|--------------|
                                               *Play faintly*
e|-------------8--|---------------8--11-11/13~~-(\11/13~~~)--|
B|------9--11-----|------8--9--11----------------------------|
G|--10------------|--10--------------------------------------|
D|----------------|------------------------------------------|
A|----------------|------------------------------------------|
E|----------------|------------------------------------------|


Repeat Chorus once w/o lead guitar, then once normally.


Ending (distorted):
e|---------------------|---------------------|--11-11---11-11--|
B|--11-9-8-------------|--11-9-8-------------|--8--8----8--8---|
G|---------8-10b12r10--|---------8-10b12r10--|-----------------|
D|---------------------|---------------------|-----------------| x2
A|---------------------|---------------------|-----------------|
E|---------------------|---------------------|-----------------|
                            Fm   G#  D#  A#m Fm
e|----------11---11-11-11--|------------------------------|
B|--/11~~~-----8----8--8---|------------------------------|
G|-------------------------|---------8--------------------|
D|-------------------------|-3---6---8---8---3------------|
A|-------------------------|-3---6---6---8---3-*sustain*--|
E|-------------------------|-1---4-------6---1------------|


************************************

| /   slide up
| \   slide down
| h   hammer-on
| p   pull-off
| ~   vibrato
| +   harmonic
| x   Mute note
| b   Bend
| pb  Pre-bend
| br  Bend release
| pbr Pre-bend release
| brb Bend release bend

************************************





Comments


Popular Iration tabs & chords
Electricity Chords
Get Back To Me Chords
Work It Out Chords
Changed My Mind Tabs
No Letter Tabs
Summer Nights 1 Tabs
Time Bomb Tabs
Electricity Ukulele
No Letter Ukulele
Work It Out Ukulele


Song lyrics



↑ Back to top | Tablatures and chords are parodies/interpretations of the original songs. You may use it for private study, scholarship, research or language learning purposes only
© 2014 AZChords.com Contact us | Privacy policy | DMCA | Add/correct tabs | Request tabs | Top 50 tabs