>
 >
Summer Nights 1

Summer Nights 1 Guitar Tabs

Iration - Summer Nights 1 chords, tabs, tablatures, lyrics

Guitar lessons | Add/correct | Request | Top 50 tabs Artists:  A B C D E F G H I J K L M N O P Q R S T U V W X Y Z 0-9

Summer Nights 1 Guitar Tabs – Iration

CD, Sheet music, Poster

Do you like Summer Nights 1? Share with your friends now
TabsTabs v2
-----------------------------------------------------------------
Summer Nights - Iration
-----------------------------------------------------------------
Tuning: standard
e|---5--5--------------------------------------------------------|intro
B|--------5-5-3-2-3-2---0h2p0--------0h2p0----------0h2p0--------|
G|--------------------2------------2--------------2-------2------|
D|---------------------------------------------------------------|
A|---------------------------------------------------------------|
E|---------------------------------------------------------------|x2
     A              Bm       E
e|---5---5---5---5---7---7---7---7-------------------------------|verse
B|---5---5---5---5---7---7---9---9-------------------------------|
G|---6---6---6---6---7---7---9---9-------------------------------|
D|---7---7---7---7---9---9---9---9-------------------------------|
A|---7---7---7---7---9---9---7---7-------------------------------|
E|---5---5---5---5---7---7---x---x-------------------------------|x3
     A             Bm       E
e|---5---5---5---5--7-------7------------------------------------|verse
B|---5---5---5---5--7-------9------------------------------------|
G|---6---6---6---6--7-------9------------------------------------|
D|---7---7---7---7--9-ring--9-ring-------------------------------|
A|---7---7---7---7--9-------7------------------------------------|
E|---5---5---5---5--7-------x------------------------------------|x1
     A              Bm       E
e|---5---5---5---5---7---7---7---7-------------------------------|chorus
B|---5---5---5---5---7---7---9---9-------------------------------|
G|---6---6---6---6---7---7---9---9-------------------------------|
D|---7---7---7---7---9---9---9---9-------------------------------|
A|---7---7---7---7---9---9---7---7-------------------------------|
E|---5---5---5---5---7---7---x---x-------------------------------|x1
     A             Bm        E
e|---5---5---5---5--7---7----7-----------------------------------|chorus
B|---5---5---5---5--7---7----9-----------------------------------|
G|---6---6---6---6--7---7----9-----------------------------------|
D|---7---7---7---7--9---9----9-ring------------------------------|
A|---7---7---7---7--9---9----7-----------------------------------|
E|---5---5---5---5--7---7----x-----------------------------------|x1
     A              Bm       E
e|---5---5---5---5---7---7---7---7-------------------------------|verse
B|---5---5---5---5---7---7---9---9-------------------------------|
G|---6---6---6---6---7---7---9---9-------------------------------|
D|---7---7---7---7---9---9---9---9-------------------------------|
A|---7---7---7---7---9---9---7---7-------------------------------|
E|---5---5---5---5---7---7---x---x-------------------------------|x1

e|---5---------------7-------7-----------------------------------|verse
B|---5---------------7-------9-----------------------------------|
G|---6---------------7-ring--9-ring------------------------------|
D|---7--ring---------9-------9-----------------------------------|
A|---7---------------9-------7-----------------------------------|
E|---5---------------7-------x-----------------------------------|x1



     A              Bm       E
e|---5---5---5---5---7---7---7---7-------------------------------|verse
B|---5---5---5---5---7---7---9---9-------------------------------|
G|---6---6---6---6---7---7---9---9-------------------------------|
D|---7---7---7---7---9---9---9---9-------------------------------|
A|---7---7---7---7---9---9---7---7-------------------------------|
E|---5---5---5---5---7---7---x---x-------------------------------|x1
     A             Bm       E
e|---5---5---5---5--7-------7------------------------------------|verse
B|---5---5---5---5--7-------9------------------------------------|
G|---6---6---6---6--7-------9------------------------------------|
D|---7---7---7---7--9-ring--9-ring-------------------------------|
A|---7---7---7---7--9-------7------------------------------------|
E|---5---5---5---5--7-------x------------------------------------|x1
     A              Bm       E
e|---5---5---5---5---7---7---7---7-------------------------------|chorus
B|---5---5---5---5---7---7---9---9-------------------------------|
G|---6---6---6---6---7---7---9---9-------------------------------|
D|---7---7---7---7---9---9---9---9-------------------------------|
A|---7---7---7---7---9---9---7---7-------------------------------|
E|---5---5---5---5---7---7---x---x-------------------------------|x3
     A             Bm        E
e|---5---5---5---5--7---7----7-----------------------------------|chorus
B|---5---5---5---5--7---7----9-----------------------------------|
G|---6---6---6---6--7---7----9-----------------------------------|
D|---7---7---7---7--9---9----9-ring------------------------------|
A|---7---7---7---7--9---9----7-----------------------------------|
E|---5---5---5---5--7---7----x-----------------------------------|x1

e|---5--5--------------------------------------------------------|intro
B|--------5-5-3-2-3-2---0h2p0--------0h2p0----------0h2p0--------|
G|--------------------2------------2--------------2-------2------|
D|---------------------------------------------------------------|
A|---------------------------------------------------------------|
E|---------------------------------------------------------------|x1

e|---5--5--------------------------------------------------------|intro
B|--------5-5-3-2-3-2---0h2p0--------0h2p0-----------------------|
G|--------------------2------------2--------------2--1-----------|
D|---------------------------------------------------------------|
A|---------------------------------------------------------------|
E|---------------------------------------------------------------|x1
    Bm               E
e|---7---7---7---7---7---7---7---7-------------------------------|bridge
B|---7---7---7---7---9---9---9---9-------------------------------|
G|---7---7---7---7---9---9---9---9-------------------------------|
D|---9---9---9---9---9---9---9---9-------------------------------|
A|---9---9---9---9---7---7---7---7-------------------------------|
E|---7---7---7---7---x---x---x---x-------------------------------|x3
    Bm               E
e|---7---7---7---7---7---------7---------------------------------|bridge
B|---7---7---7---7---9---------9---------------------------------|
G|---7---7---7---7---9---------9---------------------------------|
D|---9---9---9---9---9-ring----9-ring----------------------------|
A|---9---9---9---9---7---------7---------------------------------|
E|---7---7---7---7---x---------x---------------------------------|x1



     A              Bm       E
e|---5---5---5---5---7---7---7---7-------------------------------|chorus
B|---5---5---5---5---7---7---9---9-------------------------------|
G|---6---6---6---6---7---7---9---9-------------------------------|
D|---7---7---7---7---9---9---9---9-------------------------------|
A|---7---7---7---7---9---9---7---7-------------------------------|
E|---5---5---5---5---7---7---x---x-------------------------------|x1
     A             Bm        E
e|---5---5---5---5--7---7----7-----------------------------------|chorus
B|---5---5---5---5--7---7----9-----------------------------------|
G|---6---6---6---6--7---7----9-----------------------------------|
D|---7---7---7---7--9---9----9-ring------------------------------|
A|---7---7---7---7--9---9----7-----------------------------------|
E|---5---5---5---5--7---7----x-----------------------------------|x1
     A              Bm       E
e|---5---5---5---5---7---7---7---7-------------------------------|chorus
B|---5---5---5---5---7---7---9---9-------------------------------|
G|---6---6---6---6---7---7---9---9-------------------------------|
D|---7---7---7---7---9---9---9---9-------------------------------|
A|---7---7---7---7---9---9---7---7-------------------------------|
E|---5---5---5---5---7---7---x---x-------------------------------|x5
     A             Bm        E
e|---5---5---5---5--7---7----7-----------------------------------|chorus
B|---5---5---5---5--7---7----9-----------------------------------|
G|---6---6---6---6--7---7----9-----------------------------------|
D|---7---7---7---7--9---9----9-ring------------------------------|
A|---7---7---7---7--9---9----7-----------------------------------|
E|---5---5---5---5--7---7----x-----------------------------------|x1

e|---5-----------------------------------------------------------|end
B|---5-----------------------------------------------------------|
G|---6-----------------------------------------------------------|
D|---7-ring------------------------------------------------------|
A|---7-----------------------------------------------------------|
E|---5-----------------------------------------------------------|x1

Love this song... new EP is awesome. 


| /  slide up
| \  slide down
| h  hammer-on
| p  pull-off
| ~  vibrato
| +  harmonic
| x  Mute note





Comments


Popular Iration tabs & chords
Falling Bass Tabs
Im With You Bass Tabs
No Letter Chords
Wait And See Chords
All This Time Tabs
Dream Tabs
Electricity Tabs
Im With You Tabs
No Letter Tabs
Time Bomb Tabs


Song lyrics



↑ Back to top | Tablatures and chords are parodies/interpretations of the original songs. You may use it for private study, scholarship, research or language learning purposes only
© 2014 AZChords.com Contact us | Privacy policy | DMCA | Add/correct tabs | Request tabs | Top 50 tabs