» » »

Iration, No Letter Tabs (ver.1)

Artists:  A B C D E F G H I J K L M N O P Q R S T U V W X Y Z # 

No Letter Tabs (ver.1)

Iration Tabs
Rating:
5/5 (1 vote)
No Letter lessons Tabs too difficult? Try these video lessons and learn fast
                -------------------------------------------------------------------------------
                            No Letter-Iration
-------------------------------------------------------------------------------
There are literally no tabs to this song on the internet but I think there should be 
because it is an amazing song so here it is... :)

Tuning:

e|-------------------------------0h3p0---1-----------------------------------|
B|-1-1-1-1-1----------0------1---1-------1-----------------------------------|
G|-2-2-2-2-2--0h2--------0h2-----2-------2-----------------------------------|
D|-------------------------------2-------3-----------------------------------|
A|-3-3-3-3-3-----------------------------3-----------------------------------|
E|-----------------3---------------------1-----------------------------------|

e|---------------------------------------------------------------------------|
B|-1-1-1-1-1----------0-----1-----1------------------------------------------|
G|-2-2-2-2-2--0h2-------0h2---0h2--------------------------------------------|
D|-----------------------------------0h3-------------------------------------|
A|-3-3-3-3-3-----------------------------------------------------------------|
E|------------------3--------------------------------------------------------|

This repeats twice then the verse and chorus are:

   F    G    Am

e|-1----------0--------------------------------------------------------------|
B|-1----------1--------------------------------------------------------------|
G|-2----------2--------------------------------------------------------------|
D|-3----------2--------------------------------------------------------------|
A|-3----2--------------------------------------------------------------------|
E|-1----3--------------------------------------------------------------------|


************************************

| /   slide up
| \   slide down
| h   hammer-on
| p   pull-off
| ~   vibrato
| +   harmonic
| x   Mute note
| b   Bend
| pb  Pre-bend
| br  Bend release
| pbr Pre-bend release
| brb Bend release bend

************************************
            
Submit corrections

comments powered by Disqus
↑ Back to top | Iration Tabs for No Letter. Lyrics for acoustic guitar and electric guitar. Tablatures and chords are parodies/interpretations of the original songs. You may use it for private study, scholarship, research or language learning purposes only