» » »

Im With You Tabs (ver.1)

Artists:  A B C D E F G H I J K L M N O P Q R S T U V W X Y Z # 

Im With You Tabs (ver.1)

Iration
Rating:
0/5 (0 votes)

Hard to play? Try these video lessons and learn fast.
                
This is My first tab. Great, Positive Band.

|12----------------------------|
|---16-15--------------13------|
|---------15--12-14-15----15-14|
|------------------------------|  
|------------------------------|
|------------------------------|

|12----------------------------|
|---16-15--------------13------|
|---------15--12-14-15-----14--|
|------------------------------|  
|------------------------------|
|------------------------------|

Play Barre Forms of all Chords, Reggae Strum.



Dm            Gm                  Fm            Gm
Although it's hard for me to say what's on my mind
I'm tired of messing around and wasting precious time
We both know that this feels right 
I will make it clear tonight

Dm        Gm           
I'm with you
Eb       F      Dm       Gm        Eb      F
I've known it for awhile


I'm with you
Can't live without your smile

If I could give you the world
You know
that's what I'd do
Tell me your
wildest dreams I'll make them all
come true
We both know that this
feels right
i will make it clear
tonight

Chorus

bridge:


Eb                      F
We can't tell what the future will be
You need to know you can count on me 
            
Hard to play? Try these video lessons and learn fast. | Correct




comments powered by Disqus
↑ Back to top | Tablatures and chords are parodies/interpretations of the original songs. You may use it for private study, scholarship, research or language learning purposes only