» » »

Iration, Electricity Tabs (ver.1)

Artists:  A B C D E F G H I J K L M N O P Q R S T U V W X Y Z # 

Electricity Tabs (ver.1)

Iration Tabs
Rating:
5/5 (1 vote)
Electricity lessons Tabs too difficult? Try these video lessons and learn fast
                Tuning: Standard

This is the tab for Electricity by Iration.
Its a good song.
No one else had tabbed it out yet so here is the way i play it....enjoy, ADB (AKA Brown man)


Intro:
e|-7-7--7-7--5-5--7-7------------------------------------------------------|
B|-8-8--7-7--5-5--7-7------------------------------------------------------|
G|-9-9--7-7--5-5--7-7------------------------------------------------------|   x2
D|-9-9--9-9--7-7--9-9------------------------------------------------------|
A|-7-7--9-9--7-7--9-9------------------------------------------------------|
E|------7-7--5-5--7-7------------------------------------------------------|


Riff:
e|--------------------------------------------------------------------|
B|------8-8/10---10-15-15/17---17-20-20/22-22b24----------------------|
G|-9~~-9--------------------------------------------------------------|
D|--------------------------------------------------------------------|
A|--------------------------------------------------------------------|
E---------------------------------------------------------------------|

Verse:
e|-7-7-7-7--5-5-5-5--7-7-7-7--5-5-5-5--7------------------------------|
B|-8-8-8-8--5-5-5-5--8-8-8-8--5-5-5-5--7------------------------------|
G|-9-9-9-9--5-5-5-5--9-9-9-9--5-5-5-5--7------------------------------| x2
D|-7-7-7-7--7-7-7-7--7-7-7-7--7-7-7-7--9------------------------------|
A|--------------------------------------------------------------------|
E|--------------------------------------------------------------------|

Chorus:
e|-3-3-3-3--7-7-7-7--5-5-5-5-5-5-5-5----------------------------------|
B|-5-5-5-5--8-8-8-8--7-7-7-7-7-7-7-7----------------------------------|
G|-5-5-5-5--9-9-9-9--7-7-7-7-7-7-7-7----------------------------------|x3
D|-5-5-5-5--9-9-9-9--7-7-7-7-7-7-7-7----------------------------------|
A|-3-3-3-3--7-7-7-7--5-5-5-5-5-5-5-5----------------------------------|
E|--------------------------------------------------------------------|

End on
e|-3-3-3-3-5----------------------------------------------------------|
B|-5-5-5-5-7----------------------------------------------------------|
G|-5-5-5-5-7----------------------------------------------------------|
D|-5-5-5-5-7----------------------------------------------------------|
A|-3-3-3-3-5----------------------------------------------------------|
E|--------------------------------------------------------------------|

This is pretty much it, apart from after the second chorus it goes back to that riff 
guitar 2 plays this


e|-----------------------------------------------------5/7-5p3-5-5~-5/7~|
B|----------------------------------------------------------------------|
G|-2/4-2p0-----------2/4-2p0-2-2~----2/4-2p0----------------------------|
D|---------2p0-2~----------------------------2p0-2~---------------------|
A|----------------------------------------------------------------------|
E|----------------------------------------------------------------------|

That is all.
            

comments powered by Disqus
↑ Back to top | Iration Tabs for Electricity. Lyrics for acoustic guitar and electric guitar. Tablatures and chords are parodies/interpretations of the original songs. You may use it for private study, scholarship, research or language learning purposes only