>
 >
All This Time

All This Time Guitar Tabs

Iration - All This Time chords, tabs, tablatures, lyrics

Guitar lessons | Add/correct | Request | Top 50 tabs Artists:  A B C D E F G H I J K L M N O P Q R S T U V W X Y Z 0-9

All This Time Guitar Tabs – Iration

CD, Sheet music, Poster

Do you like All This Time? Share with your friends now
Tabs
-----------------------------------------------------------------
-----------------------------------------------------------------
Tuning: Standard
e|---------------------------------------------------------------|
B|---------------------------------------------------------------|
G|---------------------------------------------------------------|
D|-----*-*-4-4-*-*-----------------------------------------------|
A|-*-*-6-6-----6-6-----------------------------------------------|
E|-4-4-----------------------------------------------------------|x16

e|---------------------------------------------------------------|
B|---------------------------------------------------------------|
G|---------------------------------------------------------------|
D|--*-*-*-9-9--------*-*-*-6-6-------*-*-4-4-*-*-----*-*-4-4-*-*-|
A|--7-7-7-----7----7-4-4-4-----4-*-*-6-6-----6-6-*-*-6-6-----6-6-|
E|-------------------------------4-4-------------4-4-------------|x2
    E      C#m     G#m
e|--7---7---4---4---4---4---4---4--------------------------------|
B|--9---9---5---5---4---4---4---4--------------------------------|
G|--9---9---6---6---4---4---4---4--------------------------------|
D|--9---9---6---6---6---6---6---6--------------------------------|
A|--7---7---4---4---6---6---6---6--------------------------------|
E|--x---x---x---x---4---4---4---4--------------------------------|x2
     E           C#m          G#m    
e|-x-7--7-7-x-7-x-4--4-4-x-4-x-4--4-4-x-4-x-4--4-4-x-4-----------|
B|-x-9--9-9-x-9-x-5--5-5-x-5-x-4--4-4-x-4-x-4--4-4-x-4-----------|
G|-x-9--9-9-x-9-x-6--6-6-x-6-x-4--4-4-x-4-x-4--4-4-x-4-----------|
D|-x-9--9-9-x-9-x-6--6-6-x-6-x-6--6-6-x-6-x-6--6-6-x-6-----------|
A|-x-7--7-7-x-7-x-4--4-4-x-4-x-6--6-6-x-6-x-6--6-6-x-6-----------|
E|-x-x--x-x-x-x-x-x--x-x-x-x-x-4--4-4-x-4-x-4--4-4-x-4-----------|x1
     E           C#m          G#m
e|-x-7--7-7-x-7-x-4--4-4-x-4-x-4-4-4-4-4-4-4-4-------------------|
B|-x-9--9-9-x-9-x-5--5-5-x-5-x-4-4-4-4-4-4-4-4-------------------|
G|-x-9--9-9-x-9-x-6--6-6-x-6-x-4-4-4-4-4-4-4-4-------------------|
D|-x-9--9-9-x-9-x-6--6-6-x-6-x-6-6-6-6-6-6-6-6-------------------|
A|-x-7--7-7-x-7-x-4--4-4-x-4-x-6-6-6-6-6-6-6-6-------------------|
E|-x-x--x-x-x-x-x-x--x-x-x-x-x-4-4-4-4-4-4-4-4-------------------|x1
  F#  E                        F#                G#m    F#
e|-9--7--7-7-x-7-x-7--7-7-x-7-x-9---9--9--x-9--x--11-x-x-9-------|
B|-11-9--9-9-x-9-x-9--9-9-x-9-x-11--11-11-x-11-x--12-x-x-11------|
G|-11-9--9-9-x-9-x-9--9-9-x-9-x-11--11-11-x-11-x--13-x-x-11------|
D|-11-9--9-9-x-9-x-9--9-9-x-9-x-11--11-11-x-11-x--13-x-x-11------|
A|-9--7--7-7-x-7-x-7--7-7-x-7-x-9---9--9--x-9--x--11-x-x-9-------|
E|-x--x--x-x-x-x-x-x--x-x-x-x-x-x---x--x--x-x--x--x--x-x-x-------|X1
    E                        F#                G#m    F#
e|--7--7-7-x-7-x-7--7-7-x-7-x-9---9--9--x-9--x--11-x-x-9---------|
B|--9--9-9-x-9-x-9--9-9-x-9-x-11--11-11-x-11-x--12-x-x-11--------|
G|--9--9-9-x-9-x-9--9-9-x-9-x-11--11-11-x-11-x--13-x-x-11--------|
D|--9--9-9-x-9-x-9--9-9-x-9-x-11--11-11-x-11-x--13-x-x-11--------|
A|--7--7-7-x-7-x-7--7-7-x-7-x-9---9--9--x-9--x--11-x-x-9---------|
E|--x--x-x-x-x-x-x--x-x-x-x-x-x---x--x--x-x--x--x--x-x-x---------|X2



e|--7--7-7-x-7-x-7--7-7-x-7-x-9--9--9--9--9--9--9--9--9----------|
B|--9--9-9-x-9-x-9--9-9-x-9-x-11-11-11-11-11-11-11-11-11---------|
G|--9--9-9-x-9-x-9--9-9-x-9-x-11-11-11-11-11-11-11-11-11---------|
D|--9--9-9-x-9-x-9--9-9-x-9-x-11-11-11-11-11-11-11-11-11---------|
A|--7--7-7-x-7-x-7--7-7-x-7-x-9--9--9--9--9--9--9--9--9----------|
E|--x--x-x-x-x-x-x--x-x-x-x-x-x--x--x--x--x--x--x--x--x----------|X1

e|---------------------------------------------------------------|
B|---------------------------------------------------------------|
G|---------------------------------------------------------------|
D|--*-*-*-9-9--------*-*-*-6-6-------*-*-4-4-*-*-----*-*-4-4-*-*-|
A|--7-7-7-----7----7-4-4-4-----4-*-*-6-6-----6-6-*-*-6-6-----6-6-|
E|-------------------------------4-4-------------4-4-------------|x2
    E      C#m     G#m
e|--7---7---4---4---4---4---4---4--------------------------------|
B|--9---9---5---5---4---4---4---4--------------------------------|
G|--9---9---6---6---4---4---4---4--------------------------------|
D|--9---9---6---6---6---6---6---6--------------------------------|
A|--7---7---4---4---6---6---6---6--------------------------------|
E|--x---x---x---x---4---4---4---4--------------------------------|x2
     E           C#m          G#m    
e|-x-7--7-7-x-7-x-4--4-4-x-4-x-4--4-4-x-4-x-4--4-4-x-4-----------|
B|-x-9--9-9-x-9-x-5--5-5-x-5-x-4--4-4-x-4-x-4--4-4-x-4-----------|
G|-x-9--9-9-x-9-x-6--6-6-x-6-x-4--4-4-x-4-x-4--4-4-x-4-----------|
D|-x-9--9-9-x-9-x-6--6-6-x-6-x-6--6-6-x-6-x-6--6-6-x-6-----------|
A|-x-7--7-7-x-7-x-4--4-4-x-4-x-6--6-6-x-6-x-6--6-6-x-6-----------|
E|-x-x--x-x-x-x-x-x--x-x-x-x-x-4--4-4-x-4-x-4--4-4-x-4-----------|x1
     E           C#m          G#m
e|-x-7--7-7-x-7-x-4--4-4-x-4-x-4-4-4-4-4-4-4-4-------------------|
B|-x-9--9-9-x-9-x-5--5-5-x-5-x-4-4-4-4-4-4-4-4-------------------|
G|-x-9--9-9-x-9-x-6--6-6-x-6-x-4-4-4-4-4-4-4-4-------------------|
D|-x-9--9-9-x-9-x-6--6-6-x-6-x-6-6-6-6-6-6-6-6-------------------|
A|-x-7--7-7-x-7-x-4--4-4-x-4-x-6-6-6-6-6-6-6-6-------------------|
E|-x-x--x-x-x-x-x-x--x-x-x-x-x-4-4-4-4-4-4-4-4-------------------|x1
  F#  E                        F#                G#m    F#
e|-9--7--7-7-x-7-x-7--7-7-x-7-x-9---9--9--x-9--x--11-x-x-9-------|
B|-11-9--9-9-x-9-x-9--9-9-x-9-x-11--11-11-x-11-x--12-x-x-11------|
G|-11-9--9-9-x-9-x-9--9-9-x-9-x-11--11-11-x-11-x--13-x-x-11------|
D|-11-9--9-9-x-9-x-9--9-9-x-9-x-11--11-11-x-11-x--13-x-x-11------|
A|-9--7--7-7-x-7-x-7--7-7-x-7-x-9---9--9--x-9--x--11-x-x-9-------|
E|-x--x--x-x-x-x-x-x--x-x-x-x-x-x---x--x--x-x--x--x--x-x-x-------|X1
    E                        F#                G#m    F#
e|--7--7-7-x-7-x-7--7-7-x-7-x-9---9--9--x-9--x--11-x-x-9---------|
B|--9--9-9-x-9-x-9--9-9-x-9-x-11--11-11-x-11-x--12-x-x-11--------|
G|--9--9-9-x-9-x-9--9-9-x-9-x-11--11-11-x-11-x--13-x-x-11--------|
D|--9--9-9-x-9-x-9--9-9-x-9-x-11--11-11-x-11-x--13-x-x-11--------|
A|--7--7-7-x-7-x-7--7-7-x-7-x-9---9--9--x-9--x--11-x-x-9---------|
E|--x--x-x-x-x-x-x--x-x-x-x-x-x---x--x--x-x--x--x--x-x-x---------|X2
    E                        F#m        
e|--7--7-7-x-7-x-7--7-7-x-7-x-9--9--9--9--9--9--9--9--9----------|
B|--9--9-9-x-9-x-9--9-9-x-9-x-11-11-11-11-11-11-11-11-11---------|
G|--9--9-9-x-9-x-9--9-9-x-9-x-11-11-11-11-11-11-11-11-11---------|
D|--9--9-9-x-9-x-9--9-9-x-9-x-11-11-11-11-11-11-11-11-11---------|
A|--7--7-7-x-7-x-7--7-7-x-7-x-9--9--9--9--9--9--9--9--9----------|
E|--x--x-x-x-x-x-x--x-x-x-x-x-x--x--x--x--x--x--x--x--x----------|X1




e|---------------------------------------------------------------|
B|---------------------------------------------------------------|
G|---------------------------------------------------------------|
D|--*-*-*-9-9--------*-*-*-6-6-------*-*-4-4-*-*-----*-*-4-4-*-*-|
A|--7-7-7-----7----7-4-4-4-----4-*-*-6-6-----6-6-*-*-6-6-----6-6-|
E|-------------------------------4-4-------------4-4-------------|x2

e|---------------------------------------------------------------|
B|-----------------------------------------9+--------------------|
G|---------------------------------------------------------------|
D|--6------6-6------6-6-6------6-6-6-6---------------------------|
A|--6------6-6------6-6-6------6-6-6-6---------------------------|
E|--4------4-4------4-4-4------4-4-4-4---------------------------|X2

e|---------------------------------------------------------------|
B|---------------------------------------------------------------|
G|---------------------------------------------------------------|
D|-----*-*-4-4-*-*-----------------------------------------------|
A|-*-*-6-6-----6-6-----------------------------------------------|
E|-4-4-----------------------------------------------------------|x8
  F#  E                        F#                G#m    F#
e|-9--7--7-7-x-7-x-7--7-7-x-7-x-9---9--9--x-9--x--11-x-x-9-------|
B|-11-9--9-9-x-9-x-9--9-9-x-9-x-11--11-11-x-11-x--12-x-x-11------|
G|-11-9--9-9-x-9-x-9--9-9-x-9-x-11--11-11-x-11-x--13-x-x-11------|
D|-11-9--9-9-x-9-x-9--9-9-x-9-x-11--11-11-x-11-x--13-x-x-11------|
A|-9--7--7-7-x-7-x-7--7-7-x-7-x-9---9--9--x-9--x--11-x-x-9-------|
E|-x--x--x-x-x-x-x-x--x-x-x-x-x-x---x--x--x-x--x--x--x-x-x-------|X1
    E                        F#                G#m    F#
e|--7--7-7-x-7-x-7--7-7-x-7-x-9---9--9--x-9--x--11-x-x-9---------|
B|--9--9-9-x-9-x-9--9-9-x-9-x-11--11-11-x-11-x--12-x-x-11--------|
G|--9--9-9-x-9-x-9--9-9-x-9-x-11--11-11-x-11-x--13-x-x-11--------|
D|--9--9-9-x-9-x-9--9-9-x-9-x-11--11-11-x-11-x--13-x-x-11--------|
A|--7--7-7-x-7-x-7--7-7-x-7-x-9---9--9--x-9--x--11-x-x-9---------|
E|--x--x-x-x-x-x-x--x-x-x-x-x-x---x--x--x-x--x--x--x-x-x---------|X2
    E                        F#m        
e|--7--7-7-x-7-x-7--7-7-x-7-x-9--9--9--9--9--9--9--9--9----------|
B|--9--9-9-x-9-x-9--9-9-x-9-x-11-11-11-11-11-11-11-11-11---------|
G|--9--9-9-x-9-x-9--9-9-x-9-x-11-11-11-11-11-11-11-11-11---------|
D|--9--9-9-x-9-x-9--9-9-x-9-x-11-11-11-11-11-11-11-11-11---------|
A|--7--7-7-x-7-x-7--7-7-x-7-x-9--9--9--9--9--9--9--9--9----------|
E|--x--x-x-x-x-x-x--x-x-x-x-x-x--x--x--x--x--x--x--x--x----------|X1
  F#  E                        F#                G#m    F#
e|-9--7--7-7-x-7-x-7--7-7-x-7-x-9---9--9--x-9--x--11-x-x-9-------|
B|-11-9--9-9-x-9-x-9--9-9-x-9-x-11--11-11-x-11-x--12-x-x-11------|
G|-11-9--9-9-x-9-x-9--9-9-x-9-x-11--11-11-x-11-x--13-x-x-11------|
D|-11-9--9-9-x-9-x-9--9-9-x-9-x-11--11-11-x-11-x--13-x-x-11------|
A|-9--7--7-7-x-7-x-7--7-7-x-7-x-9---9--9--x-9--x--11-x-x-9-------|
E|-x--x--x-x-x-x-x-x--x-x-x-x-x-x---x--x--x-x--x--x--x-x-x-------|X1
    E                        F#                G#m    F#
e|--7--7-7-x-7-x-7--7-7-x-7-x-9---9--9--x-9--x--11-x-x-9---------|
B|--9--9-9-x-9-x-9--9-9-x-9-x-11--11-11-x-11-x--12-x-x-11--------|
G|--9--9-9-x-9-x-9--9-9-x-9-x-11--11-11-x-11-x--13-x-x-11--------|
D|--9--9-9-x-9-x-9--9-9-x-9-x-11--11-11-x-11-x--13-x-x-11--------|
A|--7--7-7-x-7-x-7--7-7-x-7-x-9---9--9--x-9--x--11-x-x-9---------|
E|--x--x-x-x-x-x-x--x-x-x-x-x-x---x--x--x-x--x--x--x-x-x---------|X2
   



    E                        F#m        
e|--7--7-7-x-7-x-7--7-7-x-7-x-9--9--9--9--9--9--9--9--9----------|
B|--9--9-9-x-9-x-9--9-9-x-9-x-11-11-11-11-11-11-11-11-11---------|
G|--9--9-9-x-9-x-9--9-9-x-9-x-11-11-11-11-11-11-11-11-11---------|
D|--9--9-9-x-9-x-9--9-9-x-9-x-11-11-11-11-11-11-11-11-11---------|
A|--7--7-7-x-7-x-7--7-7-x-7-x-9--9--9--9--9--9--9--9--9----------|
E|--x--x-x-x-x-x-x--x-x-x-x-x-x--x--x--x--x--x--x--x--x----------|X1

e|---------------------------------------------------------------|
B|---------------------------------------------------------------|
G|---------------------------------------------------------------|
D|--*-*-*-9-9--------*-*-*-6-6-------*-*-4-4-*-*-----*-*-4-4-*-*-|
A|--7-7-7-----7----7-4-4-4-----4-*-*-6-6-----6-6-*-*-6-6-----6-6-|
E|-------------------------------4-4-------------4-4-------------|x2
    E      C#m     G#m
e|--7---7---4---4---4---4---4---4--------------------------------|
B|--9---9---5---5---4---4---4---4--------------------------------|
G|--9---9---6---6---4---4---4---4--------------------------------|
D|--9---9---6---6---6---6---6---6--------------------------------|
A|--7---7---4---4---6---6---6---6--------------------------------|
E|--x---x---x---x---4---4---4---4--------------------------------|x2


| *  palm mute
| /  slide up
| \  slide down
| h  hammer-on
| p  pull-off
| ~  vibrato
| +  harmonic
| x  Mute note





Comments


Popular Iration tabs & chords
Dream Bass Tabs
Falling Bass Tabs
No Letter Chords
Changed My Mind Tabs
Dream Tabs
Electricity Tabs
Im With You Tabs
No Letter Tabs
Porcupine Intro Tabs
Wait And See Ukulele


Song lyrics



↑ Back to top | Tablatures and chords are parodies/interpretations of the original songs. You may use it for private study, scholarship, research or language learning purposes only
© 2014 AZChords.com Contact us | Privacy policy | DMCA | Add/correct tabs | Request tabs | Top 50 tabs