» » »

Mi Inteligencia Intrapersonal Tabs (ver.1)

Artists:  A B C D E F G H I J K L M N O P Q R S T U V W X Y Z # 

Mi Inteligencia Intrapersonal Tabs (ver.1)

Intoxicados
Rating:
0/5 (0 votes)

Hard to play? Try these video lessons and learn fast.
                Intro:

|-------------------------------------------------|
|-------------------------------------------------|
|----7-5-4-------5--4-5/7/5-4/5/4---7-5-4-------5-|
|--5-------5-5--------------------5-------5-5-----|
|--------------7------------------------------7---|
|-------------------------------------------------|

 ------------------------------------------------|
 ------------------------------------------------|
 ------------3-3-3--3-3-3-----------3-3-3--3-3---|
 ------------3-3-3--3-3-3-----------3-3-3--3-3---|
 -2-3-3-4-4--5-5-5--5-5-5--3-3-4-4--5-5-5--5-5---|
 ------------------------------------------------|

 ----------------------|
 ----------------------|
 ----------------------|
 ----------------------|(x2)
 -3-3-3-3/5/3-2/3/2----|
 -------------------3--|

G               C                 G
Cuando veo que nada esta bien y siento
	   C		    D  Riff
que me empiezo a perder me alejo
G		  C              G
No diga que no quiera cambiar pero,
	   C		    D
se hace dificil dejar el veneno, lo sabes bien

Intro

Mi inteligencia intrapersonal nunca
ha sido la mejor de este pueblo
y todos los consejos que me dan
me ayudan pero solo no puedo

C5-C5-D5			    C5-C5
Me la paso tratando de poder zafar,
D5				      C5-C5
busco estar bien y consigo estar mal
D5				C5-C5
nunca llego donde quiero llegar
D5				      C5-C5
mi sangre se enfria, el feeling se va
D5    C5-D5	 C5
vos aca, yo alla,
D5
asi nunca nos vamos a poder encontrar

(intro)
yo creo que no...
yo creo que no...

y todos los consejos que me das
me ayudan pero solo no puedo (gracias)

Me la paso tratando de poder zafar,
busco estar bien y consigo estar mal
nunca llego donde quiero llegar
mi sangre se enfria, el feeling se va
vos aca, yo alla,
asi nunca nos vamos a poder encontrar

(= estribillo)
Y me digo amigo, es hora de salir,
el juego se acaba, cuanto tiempo perdi
todos se quedaron yo me quise ir
ofrecieron llevarme pero quise seguir
vos aca, yo alla,
asi nunca nos vamos a poder encontrar

(intro)
yo creo que no...
(repite el segundo renglon de la intro hasta el final)

Riff

|----------------------|
|----------------------|
|----------------------|
|----------------------|(x2)
|-3-3-3-3/5/3-2/3/2----|
|-------------------3--|
            
Hard to play? Try these video lessons and learn fast. | Correct




comments powered by Disqus
↑ Back to top | Tablatures and chords are parodies/interpretations of the original songs. You may use it for private study, scholarship, research or language learning purposes only