» » »

The Legacy Of Odio Tabs (ver.3)

Artists:  A B C D E F G H I J K L M N O P Q R S T U V W X Y Z # 

The Legacy Of Odio Tabs (ver.3)

In This Moment
Rating:
0/5 (0 votes)

Tabs too difficult? Try these video lessons and learn fast.
                In this moment - The Legacy Of Odio

Drop D tuning (DADGBe)

INTRO

E|--------4---5---4---------4-----------4---5---4---------4---|
G|----7-------------7---5-----5-----7-------------7---5-----5-|
B|--6---6---6---6-----6---6-------6---6---6---6-----6---6-----| (x10 times) 
D|-4--------------4--------------0--------------0-------------|
A|------------------------------------------------------------|
D|------------------------------------------------------------|


BRIDGE

E|-----------------|       
G|-----------------|       
B|-9-------4-------|       
D|-7-(X8)--4-------|        
A|-5-------2-(X8)--|
D|-0-------2-------|

VERSE


I've been driving through these nights
This road reminding me of all I am
As time drags on, these windows fade
Reality starts slipping from my mind

E|------------------------|
G|------------------------|
B|-----6-------9----------|
D|-----7-------9----------| (repeat 4 times for verse) 
A|-----9-(x7)--7-(x7)-----|
D|-----0-------7----------|

CHORUS

All I know is this all fades, the second that I'm by your side
Can this be real, can this be fate
 
E|------------------------|
G|------------------------|
B|-----6-------9----------|
D|-----7-------9----------| (repeat 3 times for chorus) 
A|-----9-(x7)--7-(x7)-----|
D|-----0-------7----------|

E|------------------------|
G|------------------------|
B|-----6-------4----------|
D|-----7-------4----------| (the end of a chorus) 
A|-----9-(x7)--2-(x7)-----|
D|-----0-------2----------|

BRIDGE

Just say you'll be there for me
Please say that you'll be there
Just say that you'll be my side
When the storm subsides

E|------------------------------------------------|
G|------------------------------------------------|
B|-9-------4-------66-4--4-444444--9------4-------|
D|-7-(X8)--4-------44-7--6-666666--9------4-------| (x2 times for bridge) 
A|-5-------2-(X8)--44-4--4-774477--7-(X6)-2-(X2)--|
D|-0-------2-------44-4--4-444-----7------2-------|

VERSE

All these years beneath the skin
Everything inside me turning to the shame
I was lost, but now I can see
This fate is turning deep inside of me

E|------------------------|
G|------------------------|
B|-----6-------9----------|
D|-----7-------9----------| (repeat 4 times for verse) 
A|-----9-(x7)--7-(x7)-----|
D|-----0-------7----------|

CHORUS

All I know is this all fades, the second that I'm by your side
Can this be real, can this be fate
 
E|------------------------|
G|------------------------|
B|-----6-------9----------|
D|-----7-------9----------| (repeat 3 times for chorus) 
A|-----9-(x7)--7-(x7)-----|
D|-----0-------7----------|

E|------------------------|
G|------------------------|
B|-----6-------4----------|
D|-----7-------4----------| (the end of a chorus) 
A|-----9-(x7)--2-(x7)-----|
D|-----0-------2----------|

BRIDGE

Just say that you'll be with me
Please say that you'll be there
Just say that you'll be my side
When the storm subsides

E|------------------------------------------------|
G|------------------------------------------------|
B|-9-------4-------66-4--4-444444--9------4-------|
D|-7-(X8)--4-------44-7--6-666666--9------4-------| (x2 times for bridge) 
A|-5-------2-(X8)--44-4--4-774477--7-(X6)-2-(X2)--|
D|-0-------2-------44-4--4-444-----7------2-------|

BRIDGE2

E|---------------------------------------|
G|---------------------------------------|
B|-9-------4-------6------9------4-------|
D|-7-(X8)--4-------4------9------4-------| (repeat 2 times for bridge2) 
A|-5-------2-(X8)--4-(X8)-7-(X6)-2-(X2)--|
D|-0-------2-------4------7------2-------|

OUTRO


E|--------4---5---4---------4-----------4---5---4---------4---|
G|----7-------------7---5-----5-----7-------------7---5-----5-|
B|--6---6---6---6-----6---6-------6---6---6---6-----6---6-----|  (x7 times) 
D|-4--------------4--------------0--------------0-------------|
A|------------------------------------------------------------|
D|------------------------------------------------------------|

E|--------4---5---4---------4-------4--|
G|----7-------------7---5-----5-----7--|
B|--6---6---6---6-----6---6---------6--|   
D|-4----------------------------4---4--|
A|-------------------------------------|
D|-------------------------------------|

Whispers of october,
Haunting within,
As the sun dies and the stars fall,
This beautiful fate gently wraps these wounds.
Surpressing the bleeding through these torn lullabies,
We are one,
And these wings fall around me and I know in one breath - I am free
Believe




I Modified tHis Tab: 
Thanks, Jonny!
            
Tabs too difficult? Try these video lessons and learn fast.




comments powered by Disqus
↑ Back to top | Tablatures and chords are parodies/interpretations of the original songs. You may use it for private study, scholarship, research or language learning purposes only