>
 >
Forever Acoustic Intro

Forever Acoustic Intro Guitar Tabs

In This Moment - Forever Acoustic Intro chords, tabs, tablatures, lyrics

Guitar lessons | Add/correct | Request | Top 50 tabs Artists:  A B C D E F G H I J K L M N O P Q R S T U V W X Y Z 0-9

Forever Acoustic Intro Guitar Tabs – In This Moment

CD, Sheet music, Poster

Do you like Forever Acoustic Intro? Share with your friends now
Tabs
        Forever (Acoustic) - In This Moment                                  

-----------------------------------------------------------------------------


Sorry that it's just the intro
I can't really figure out the chords in the video
if someone else can figure out the basic chords used in this
song i'd be happy to finish the tab :D
this is tuned half a step down


      E  E  E  E  E  E  E  E     E  E  E  E  E  E  E  E   
D#||--------------------------|--------------------------|
A#||--5--------5--------5-----|-----5--------5-----------|
F#||-----5--------5--------5--|--------5--------5-----5--|
C#||--------7--------7--------|--7--------7--------7-----|
G#||--------------------------|--------------------------|
D#||--------------------------|--------------------------|


  E  E  E  E  E  E  E  E     E  E  E  E  E  E  E  E   
--------------------------|--------------------------|
--5--------5--------5-----|-----8--------6--------5--|
-----5--------5--------5--|--------5--------5--------|
--------7--------7--------|--7--------7--------7-----|
--------------------------|--------------------------|
--------------------------|--------------------------|


  E  E  E  E  E  E  E  E     E  E  E  E  E  E  E  E   
--------------------------|--------------------------|
--5--------5--------5-----|-----5--------5-----------|
-----5--------5--------5--|--------5--------5-----5--|
--------7--------7--------|--7--------7--------7-----|
--------------------------|--------------------------|
--------------------------|--------------------------|


  E  E  E  E  E  E  E  E     E  E  E  E  E  E  E  E   
--------------------------|--------------------------|
--5--------5--------5-----|-----8--------6--------5--|
-----5--------5--------5--|--------5--------5--------|
--------7--------7--------|--7--------7--------7-----|
--------------------------|--------------------------|
--------------------------|--------------------------|


  E  E  E  E  E  E  E  E     E  E  E  E  E  E  E  E   
--------------------------|--------------------------|
--5--------5--------5-----|-----5--------5-----------|
-----5--------5--------5--|--------5--------5-----5--|
--------7--------7--------|--7--------7--------7-----|
--------------------------|--------------------------|
--------------------------|--------------------------|


  E  E  E  E  E  E  E  E     E  E  E  E  E  E  E  E   
--------------------------|--------------------------|
--5--------5--------5-----|-----8--------6--------5--|
-----5--------5--------5--|--------5--------5--------|
--------7--------7--------|--7--------7--------7-----|
--------------------------|--------------------------|
--------------------------|--------------------------|


  E  E  E  E  E  E  E  E     E  E  E  E  E  E  E  E   
--------------------------|--------------------------|
--5--------5--------5-----|-----5--------5-----------|
-----5--------5--------5--|--------5--------5-----5--|
--------7--------7--------|--7--------7--------7-----|
--------------------------|--------------------------|
--------------------------|--------------------------|


  E  E  E  E  E  E  E  E     E  E  E  E  E  E  E  E                
--------------------------|--------------------------|-----|-----||
--5--------5--------5-----|-----8--------6--------5--|-----|-----||
-----5--------5--------5--|--------5--------5--------|-----|-----||
--------7--------7--------|--7--------7--------7-----|-----|-----||
--------------------------|--------------------------|-----|-----||
--------------------------|--------------------------|-----|-----||




Duration Legend
---------------
W - whole
H - half
Q - quarter
E - 8th
S - 16th
T - 32nd
X - 64th
. - note dotted
|-n-|  - n-tuplets


Tablature Legend
----------------
L - tied note
x - dead note
g - grace note
(n) - ghost note
> - accentuded note
NH - natural harmonic
AH - artificial harmonic
TH - tapped harmonic
SH - semi harmonic
PH - pitch harmonic
h - hammer on
p - pull off
b - bend
br - bendRelease
pb - preBend
pbr - preBendRelease
brb - bendReleaseBend
\n/ - tremolo bar dip
\n - tremolo bar dive
-/n - tremolo bar Release up
/n\ - tremolo bar inverted dip
/n - tremolo bar return
-\n - tremolo bar Release down
S - shift slide
s - legato slide
/ -  slide into from below or out of upwards
\ -  slide into from above or out of downwards
~ - vibrato
W - wide vibrato
tr - trill
TP - tremolo picking
T - tapping
S - slap
P - pop
< - fade in
^ - brush up
v - brush down





Comments


Popular In This Moment tabs & chords
Beautiful Tragedy Bass Tabs
A Star-crossed Wasteland Chords
Call Me Tabs
Call Me 1 Tabs
Iron Army Intro Tabs
Prayers 1 Tabs
Prayers Intro Tabs
Prayers Intro 1 Tabs
When The Storm Subsides Intro Tabs
Whore Tabs


Song lyrics



↑ Back to top | Tablatures and chords are parodies/interpretations of the original songs. You may use it for private study, scholarship, research or language learning purposes only
© 2014 AZChords.com Contact us | Privacy policy | DMCA | Add/correct tabs | Request tabs | Top 50 tabs