>
 >
Call Me 1

Call Me 1 Guitar Tabs

In This Moment - Call Me 1 chords, tabs, tablatures, lyrics

Guitar lessons | Add/correct | Request | Top 50 tabs Artists:  A B C D E F G H I J K L M N O P Q R S T U V W X Y Z 0-9

Call Me 1 Guitar Tabs – In This Moment

CD, Sheet music, Poster

Do you like Call Me 1? Share with your friends now
TabsTabs v2
drop d tunning

this is my version of the song have fun with it :)



intro                     
                          first and third time
|-----------------------|----------------------|
|-----------------------|----------------------|
|-----------------------|--14-12-14-15-12-14---|
|--10h12-12-12-12--(3x)-|----------------------|
|-----------------------|----------------------|
|-----------------------|----------------------|

     second time           forth time
|--------------------|--13-12----------12--|
|--------------------|--------15-13h15-----|
|--14-12----------12-|---------------------|
|--------15-14h15----|---------------------|
|--------------------|---------------------|
|--------------------|---------------------|

verse

chords are
|--5-------------6----------------------|
|--6-------------6----------------------|
|--5-------------7----------------------| repeat twice
|--7-------------8----------------------|
|--5-------------8----------------------|
|---------------------------------------|

pre-chorus

|-------------------------------------|
|-------------------------------------|
|-------------------------------------|
|---5-----7-----5-----7---------------|
|---5-----7-----5-----7---------------|
|---5-----7-----5-----7---------------|

chorus

|--5-----------------------------------|
|--6-----------------------------------|
|--5----5----7----10-------------------|repeat twice
|--7----3----5----8--------------------|
|--5----3----5----8--------------------|
|-------3----5----8--------------------|

back to intro

verse is the same

pre-chorus the same but mute the last chord a couple of times

then back in to chorus

then play the first bit of the intro and the play
|-------------------------------------|
|-------------------------------------|
|-----4-----4-----5-------------------|
|--2--4--2--4--3--5--0--8--5--7-------|
|--2--2--2--2--3--3--0--8--5--7-------|
|--2-----2-----3-----0--8--5--7-------|

solo

|--------------------------------------------------17-15-14-17-15-14--|
|--12-10-------------------------------12-10--------------------------|
|--------12-11-14-12-11-14-12-11-------------12-11--------------------|
|---------------------------------12-9--------------------------------|
|---------------------------------------------------------------------|
|---------------------------------------------------------------------|

|-----------------------17-20-20-19-17--------------------------------|
|--15----------15-17/19----------------13-15-17-13-15-17-17-17-15-13--|
|-----16-16-18--------------------------------------------------------|
|---------------------------------------------------------------------|
|---------------------------------------------------------------------|
|---------------------------------------------------------------------|
                  play eleven times
|--------------|-------------------|-18-16-15------------------------------|
|-13-15p13-17*-|-15-15-15-17-15-18-|----------18-16-15-18-16-15------------|
|--------------|-------------------|----------------------------18-16-15-14|
|--------------|-------------------|---------------------------------------|
|--------------|-------------------|---------------------------------------|
|--------------|-------------------|---------------------------------------|
                                     not sure about this bit but its 
                                     somewhere around there :)


back to the chorus and intro to finish
hope u enjoy playing it





Comments


Popular In This Moment tabs & chords
Whore Chords
Beautiful Tragedy 1 Tabs
Forever 2 Tabs
Iron Army Intro Tabs
Next Life Intro Tabs
Prayers 1 Tabs
Scarlet Tabs
The Legacy Of Odio 1 Tabs
The Legacy Of Odio Intro Tabs
The Promis Into The Light Intro Tabs


Song lyrics



↑ Back to top | Tablatures and chords are parodies/interpretations of the original songs. You may use it for private study, scholarship, research or language learning purposes only
© 2014 AZChords.com Contact us | Privacy policy | DMCA | Add/correct tabs | Request tabs | Top 50 tabs