» » »

In This Moment, Beautiful Tragedy Tabs (ver.4)

Artists:  A B C D E F G H I J K L M N O P Q R S T U V W X Y Z # 

Beautiful Tragedy Tabs (ver.4)

In This Moment Tabs
 Rating:
4/5 (4 votes)
Beautiful Tragedy lessons Tabs too difficult? Try these video lessons and learn fast
1
                -----------------------------------------------------------------------------
			     BEAUTIFUL TRAGEDY - In This Moment
-----------------------------------------------------------------------------

Tuning:Drop D

My band decided to cover this tune, so I tabbed out the parts that I needed
 to learn. It's essentially guitar two. Feel free to use it to make a 
complete tab. I'm aware that the bridge isn't quite right yet, but it's 
close.

  Clean  	Distorted/Chorus Either D works for the chorus, they're both there.
e|-----------|-----------------|--------------------------------------------|
B|-----------|-----------------|--------------------------------------------|
G|--5-----7--|-------5------(7)|--------------------------------------------|
D|--5--2--7--|-------5--2--0(7)|--------------------------------------------|
A|--3--2--5--|-------3--2--0(5)|--------------------------------------------|
D|-----2-----|----------2--0---|--------------------------------------------|

	Verse
e|--------------------------------------------------------------------------|
B|--------------------------------------------------------------------------|
G|--------------------------------------------------------------------------|
D|----2--2---------2--2--5555-0000----2--2-5-4h5p4--2-2-5-4h5p4--5555-0000--|
A|----2--2---------2--2--5555-0000----2--2--------7-2-2--------7-5555-0000--|
D|----2--2---------2--2--5555-0000----2--2----------2-2----------5555-0000--|

e|--------------------------------------------------------------------------|
B|--------------------------------------------------------------------------|
G|--------------------------------------------------------------------------|
D|--2--2---4---2--2---4---5555-0000----2--2-5-4h5p4--2-2-5-4h5p4--5555-0000-|
A|--2--2-------2--2-------5555-0000----2--2--------7-2-2--------7-5555-0000-|
D|--2--2-02-20-2--2-02-20-5555-0000----2--2----------2-2----------5555-0000-|
							
  Bridge		Alt Ending

e|-----------------|--------------------------------------------------------|
B|-----------------|--------------------------------------------------------|
G|-----------------|--------------------------------------------------------|
D|-----------------|--------------------------------------------------------|
A|--5-2--3--2-2320-|-----235------------------------------------------------|
D|00-0-00-00-0-----|-...0---------------------------------------------------|



************************************

| /   slide up
| \   slide down
| h   hammer-on
| p   pull-off
| ~   vibrato
| +   harmonic
| x   Mute note
| b   Bend
| pb  Pre-bend
| br  Bend release
| pbr Pre-bend release
| brb Bend release bend

************************************
            
Submit corrections

comments powered by Disqus
↑ Back to top | In This Moment Tabs for Beautiful Tragedy. Lyrics for acoustic guitar and electric guitar. 1 Tablatures and chords are parodies/interpretations of the original songs. You may use it for private study, scholarship, research or language learning purposes only