» » »

Insyderz, Jesus, Draw Me Close Bass tabs (ver.2)

Artists:  A B C D E F G H I J K L M N O P Q R S T U V W X Y Z # 

Jesus, Draw Me Close Bass tabs (ver.2)

Insyderz Tabs
Rating:
0/5 (0 votes)
Jesus, Draw Me Close lessons Tabs too difficult? Try these video lessons and learn fast
                "Jesus Draw Me Close"
The Insyderz
-Skalleluia-
Copyright 1998 Squint Entertainment

Written by Rick Founds

evey note is played as a sixteenth note

I think this song is written as a bunch of arpeggios in c major
but I'm not sure... if anybody knows, PLEEEEASE E-mail me, I know
I sound desperate, but I worked a long time on this song and I
wanna know!

Riff A
G|------------0-------2---7-5-2-----0-3-0-------------0----------|
D|----------2---2-0-4---4-------4-0---------0-3-0---2---2-----0-2|
A|--0-3-0-3-------------------------------3-------3-------3-3----|
E|1--------------------------------------------------------------|

G|-----2-------0---|
D|-0-4---4---2---2-|
A|---------3-------|
E|-----------------|

Riff B
G|--7-5-2-------0-------2-------2------------------|
D|--------4---2---2-0-4---4-0-4---4----------------|
A|----------3-------------------------0-3-0---3-0--|
E|----------------------------------1-------1-----1|

Riff C
G|--------------------0-------0---5-3-2-0----------|
D|----2-------------2---2---2---2---------3-2-0----|
A|--4---4-0-0-2-2-3-------3---------------------3--|
E|-------------------------------------------------|

Order 'O' Riffs
A
B
A
C

then it repeats again,
(but I'm much, much too lazy to finish tabbing
this song all the way through.)

This should get you started, beleive me, it took long
enough to figure this part out, especially since the
CD doesn't have the bass mixed that loud on this song.

Comments, questions, anything for the good of the order,
            

comments powered by Disqus
↑ Back to top | Insyderz Bass for Jesus, Draw Me Close. Lyrics for acoustic guitar and electric guitar. Tablatures and chords are parodies/interpretations of the original songs. You may use it for private study, scholarship, research or language learning purposes only