>
 >
Secrets And Lies

Secrets And Lies Guitar Tabs

Institute - Secrets And Lies chords, tabs, tablatures, lyrics

Guitar lessons | Add/correct | Request | Top 50 tabs Artists:  A B C D E F G H I J K L M N O P Q R S T U V W X Y Z 0-9

Secrets And Lies Guitar Tabs – Institute

CD, Sheet music, Poster

Do you like Secrets And Lies? Share with your friends now
Tabs
Band- Institute
Song- Secrets And Lies

Tuned down half step in Dropped C#

                
                            /0:14 Acoustic Riff    10x   /0:32 Verse 1             /Guitar ente
D#|--------------------------------------------------------------------------------------------|
A#|------------------------|--------13----14----13------|-------------------------|------------|
F#|------[Drum-Intro]------|*----13----13----13----13--*|------[Bass-guitar]------|*-----------|
C#|------------------------|*-15-----------------------*|-------------------------|*--10-10-10-|
G#|------------------------|----------------------------|-------------------------|------------|
C#|--------------------------------------------------------------------------------------------|

  
  rs (Clean)                                                                        3x        /
|--------------------------------------------------------------------------------------------|
|--------------------------------------------------------------------------------------------|
|-------------------------------------------------------------------------------------------*|
|-10-10-10-10-10-10-10-10-10-10-10-10-10--11-11-11-11-11-11-11-11-11-11-11-11-11-11-11-11---*|
|--------------------------------------------------------------------------------------------|
|--------------------------------------------------------------------------------------------|


 /1:01 Pre-Chorus 1                 /1:08 Chorus part
|--------------------------------------------------------------------------------------------|
|-14----------------11-------------|---------------------------------------------------------|
|-13----------------10-------------|*--------------------------------------------------------|
|-11----------------8--------------|*-3-3-3-3-3-3-3-3--6-6-6-6-6-6-6-6--11-11-11-11-11-11-11-|
|-11----------------8--------------|--3-3-3-3-3-3-3-3--6-6-6-6-6-6-6-6--11-11-11-11-11-11-11-|
|-11----------------8-----------------3-3-3-3-3-3-3-3--6-6-6-6-6-6-6-6--11-11-11-11-11-11-11-|


                          3x   /Post-Chorus                       /1:37 Verse 2
|--------------------------------------------------------------------------------------------|
|-----------------------------|--11------------------------------|---------------------------|
|----------------------------*|--10------------------------------|----------Verse------------|
|-11-11-11-11-11-11-11-11-11-*|--8-----------------3-------------|------[Guitar-part-4x]-----|
|-11-11-11-11-11-11-11-11-11--|--8-----------------3-------------|---------------------------|
|-11-11-11-11-11-11-11-11-11-----8-----------------3-----------------------------------------|


 /2:07 Chorus 2             /2:43 Bridge
|--------------------------------------------------------------------------------------------|
|--------------------------|--11----11----11----11----11---11-----6----6----6----6----6---6--|
|------Pre-Chorus-and------|*-10----10----10----10----10---10-----5----5----5----5----5---5--|
|------Chorus-part-4x------|*-8-----8-----8-----8-----8----8------3----3----3----3----3---3--|
|--------------------------|--8-----8-----8-----8-----8----8------3----3----3----3----3---3--|
|-----------------------------8-----8-----8-----8-----8----8------3----3----3----3----3---3--|


      /2:57 Break (Distortion + Ring mod Effect|
|--------------------------------------------------------------------------------------------|
|----|---------------------------------------------------------------------------------------|
|---*|---------------------------------------------------------7~--------[Bass-guitar]-------|
|---*|-7b(8)-r-b(8)-r-b(8)-r-b(8)-b(8)-r-b(8)-r-b(8)-r-b(8)----7~----------------------------|
|----|---------------------------------------------------------5~----------------------------|
|--------------------------------------------------------------------------------------------|


 /3:12 Interlude                                                     /3:23 Chorus 3
|--------------------------------------------------------------------------------------------|
|------------------------------------------------|------------------|------------------------|
|*----------------------------------------------*|------------------|------Chorus-part-7x----|
|*-6-6--6---3-3--3---8--8--8--6--6--6--8--8--6--*|-11---------------|------------------------|
|--6-6--6---3-3--3---8--8--8--6--6--6--8--8--6---|-11---------------|------------------------|
|--6-6--6---3-3--3---8--8--8--6--6--6--8--8--6-----11----------------------------------------|



|--------------------------------------------||
|--|-----------------------------------------||
|--|-----------------------------------------||
|--|-3~----Let-------------------------------||
|--|-3~---------ring-------------------------||
|----3~--------------------------------------||

_____________________________________________________________________________________________

SECOND Guitar parts:

     /0:21 
D#|--------------------------------------------------------------------------------------------|
A#|-|------------------------------------------------------------------------------------------|
F#|-|------------------------------------------------------------------------------------------|
C#|-|-11-11-11-11-11-11-11-11-11-11-11-11-11-11-11-11--3-3-3-3-3-3-3-3--6-6-6-6-6-6-6-6--11-11-|
G#|-|-11-11-11-11-11-11-11-11-11-11-11-11-11-11-11-11--3-3-3-3-3-3-3-3--6-6-6-6-6-6-6-6--11-11-|
C#|---11-11-11-11-11-11-11-11-11-11-11-11-11-11-11-11--3-3-3-3-3-3-3-3--6-6-6-6-6-6-6-6--11-11-|


                                                /1:08 Chorus part                             /
|--------------------------------------------------------------------------------------------|
|--------------------------------------------|-|---------------------------------------------|
|--------------------------------------------|-|*-10-10-10-10-10-10-10-10--13-13-13-13-13-13-|
|-11-11-11-11-11-11-11-11-11-11-11-11-11-11--|-|*-10-10-10-10-10-10-10-10--13-13-13-13-13-13-|
|-11-11-11-11-11-11-11-11-11-11-11-11-11-11--|-|--8--8--8--8--8--8--8--8---11-11-11-11-11-11-|
|-11-11-11-11-11-11-11-11-11-11-11-11-11-11--------------------------------------------------|

                                                               
                                                       3x           /2:13 Chorus 2  
|--------------------------------------------------------------------------------------------|
|----------------------------------------------------------|-|-21~-|-------------------------|
|-13-13--18-18-18-18-18-18-18-18-18-17-17-17-17-17-17-17--*|-|-----|------Chorus-part-4x-----|
|-13-13--18-18-18-18-18-18-18-18-18-18-18-18-18-18-18-18--*|-|-----|-------------------------|
|-11-11--16-16-16-16-16-16-16-16-16------------------------|-|-----|-------------------------|
|--------------------------------------------------------------------------------------------|


   /3:23 Chorus 3            /4:14 Outro [This part is played also during the whole Chorus 3]
--|----------------------------------------------------------------21------------------------|
|-|-------------------------|-18--------------------------------------|-18-------------------|
|-|------Chorus-part-7x-----|------17-----------------20--------------|------17--------------|
|-|-------------------------|------------------18---------------------|------------------18--|
|-|-------------------------|-----------------------------------------|----------------------|
|--------------------------------------------------------------------------------------------|


|-----------------21-----------------------------------------21------------------------------|
|----------------------18-----------------------------------------18-------------------------|
|---20----------------------17-----------------20----------------------17-----------------20-|
|---------------------------------------18-----------------------------------------18--------|
|--------------------------------------------------------------------------------------------|
|--------------------------------------------------------------------------------------------|


|-----------21--------------------------------------------------------------||
|----------------18---------------------------------------------------------||
|---------------------17-----------------20---------------------------------||
|---------------------------------18----------------------------------------||
|---------------------------------------------------------------------------||
|---------------------------------------------------------------------------||



-----------------------------------------------------------------------------------------------
=======================
=TABLATURE EXPLANATION=
=======================

12))) = intensify volume on your guitar

* = palm mute

A.H. = Artificial Harmonic

pm..| = Palm mute

h = hammer on

p = pull off

/ = slide up

\ = slide down

~ = Vibrato

b() = Bend

x\ = Pick Slide

--------
--------
---12--- = Tremolo pick
----/---
----/---
----/---

---.---
--12--- = Staccato
-------
-------
-------

|     |
|     |
|*   *| = repeat from * to *
|*   *| 
|     |

. = mute





Comments


Popular Institute tabs & chords
Bullet-Proof Skin Bass Tabs
Ambulances Live Chords
Boom Box Tabs
Come On Over Tabs
God Gave Us Land Tabs
Heat Of Your Love Tabs
Heat Of Your Love 1 Tabs
Save The Robots Tabs
Seventh Wave Tabs
Ambulances Live Ukulele


Song lyrics



↑ Back to top | Tablatures and chords are parodies/interpretations of the original songs. You may use it for private study, scholarship, research or language learning purposes only
© 2014 AZChords.com Contact us | Privacy policy | DMCA | Add/correct tabs | Request tabs | Top 50 tabs