>
 >
Mountains

Mountains Guitar Tabs

Institute - Mountains chords, tabs, tablatures, lyrics

Guitar lessons | Add/correct | Request | Top 50 tabs Artists:  A B C D E F G H I J K L M N O P Q R S T U V W X Y Z 0-9

Mountains Guitar Tabs – Institute

CD, Sheet music, Poster

Do you like Mountains? Share with your friends now
Tabs
Band- Institute
Song- Mountains

Tuned down one whole step in Drop C 

                          ______________________  ______________________
  /Intro (Second Guitar) | 1. - 4.              \\| 5.                   \\      
D|-----------------------|-------------------------------------------------|
A|--7h8-p7--7h8-p7--7h8----7h8-p7--7h8-p7--7h8---|--7-.--7-.--7-.--7-.---|-|
F|*----------------------|----------------------*|-----------------------|-|
C|*----------------------|----------------------*|-----------------------|-|
G|-----------------------|-----------------------|-----------------------|-|
C|-------------------------------------------------------------------------|
   
  /Intro Rythm Guitar enters at 0:04
D|-------------------------------------------------------------------------------------------|
A|--------------------------------------------15----15--15----15----17----17--17----17-------|
F|*-4-----4--4-----4-----7-----7--7-----7-----14----14--14----14----16----16--16----16------*|
C|*-2-----2--2-----2-----5-----5--5-----5-----12----12--12----12----14----14--14----14------*|
G|--2-----2--2-----2-----5-----5--5-----5-----12----12--12----12----14----14--14----14-------|
C|--2-----2--2-----2-----5-----5--5-----5-----12----12--12----12----14----14--14----14-------|


 /0:23 Verse 1         /0:42 Pre-Chorus
|--------------------------------------------------------------------------------------------|
|---------------------|----------------------------------------------------------------------|
|-----[Bass-part]-----|-16-16-16--16-16-16--16-16---12-12-12--12-12-12--12-12---16-16-16--16-|
|---------------------|-16-16-16--16-16-16--16-16---12-12-12--12-12-12--12-12---16-16-16--16-|
|---------------------|-14-14-14--14-14-14--14-14---10-10-10--10-10-10--10-10---14-14-14--14-|
|--------------------------------------------------------------------------------------------|


                                         /0:52 Chorus 1 
|--------------------------------------------------------------------------------------------|
|---------------------------------------|------------------------------------15---15------15-|
|-16-16--16-16--16-16-16-16-16-16-16-16-|*-4---4------4-----7---7------7-----14---14------14-|
|-16-16--16-16--16-16-16-16-16-16-16-16-|*-2---2------2-----5---5------5-----12---12------12-|
|-14-14--14-14--14-14-14-14-14-14-14-14-|--2---2------2-----5---5------5-----12---12------12-|
|------------------------------------------2---2------2-----5---5------5-----12---12------12-|


                                       /1:16 Verse 2 (Clean)
|--------------------------------------------------------------------------------------------|
|-----17---17------17----|------------|------------------------------------------------------|
|-----16---16------16---*|-16~--~-----|*--14--14-------14------------11----14------------14--|
|-----14---14------14---*|-16~--~-----|*--14-----14-------14------12----12----12------16-----|
|-----14---14------14----|-14~--~-----|---12--------12---------14------------------17--------|
|-----14---14------14------------------------------------------------------------------------|


                                   /1:34 Pre-Chorus 2   /1:43 Chorus 2     /2:12 Bridge
|--------------------------------------------------------------------------------------------|
|---------------------------------|--------------------|------------------|------------------|
|----14------------------14------*|-----Pre-Chorus-----|-----Chorus-4x----|*-----------------|
|-------16---------16-------16---*|--------------------|------------------|*-5-----5---5----5|
|-17---------16h17----17----------|--------------------|------------------|--5-----5---5----5|
|----------------------------------------------------------------------------5-----5---5----5|


                                                               /2:41 Verse 3                  
|--------------------------------------------------------------------------------------------|
|------------------------------------------------|----------|-|------------------------------|
|-----------------------------------------------*|----------|-|------------------------------|
|-----5----5-----0-----0---0----0-----0---0-----*|-9~-------|-|-7~-----2~-----5~-----4~------|
|-----5----5-----0-----0---0----0-----0---0------|-9~-------|-|-7~-----2~-----5~-----4~------|
|-----5----5-----0-----0---0----0-----0---0--------9~-----------------(2)----(5)----(4)------|


 /2:50 Pre-Chorus 3     /2:59 Chorus 3      /3:48 Ending
|---------------------------------------------------------------------------------||
|----------------------|-------------------|--------------------------------------||
|------Pre-Chorus------|-----Chorus-5x-----|---------let--------to----------------||
|----------------------|-------------------|-9~--~--------ring------the-end.------||
|----------------------|-------------------|-9~--~--------------------------------||
|--------------------------------------------9~--~--------------------------------||

_____________________________________________________________________________________________

SECOND Guitar parts:

  /Intro       /0:52 Chorus 1           /1:44 Chorus 2 
D|--------------------------------------------------------------------------------------------|
A|---------------------------------------|-|----------------------|-|-----------------------|-|
F|-----------------Intro-----------------|-|------Intro-part------|-|-------Intro-part------|-|
C|---------------------------------------|-|----------------------|-|-----------------------|-|
G|---------------------------------------|-|----------------------|-|-----------------------|-|
C|--------------------------------------------------------------------------------------------|
 
 /2:32                                                       /3:00 Chorus 3                   /
|--------------------------------------------------------------------------------------------||
|---------------------------------------------------------|-|------------------------------|-||
|--16-16-16-16-16-16-16-16-16-16-16-16-16-16-16-16-16-16--|-|-------Intro-part-------------|-||
|--16-16-16-16-16-16-16-16-16-16-16-16-16-16-16-16-16-16--|-|------------------------------|-||
|---------------------------------------------------------|-|------------------------------|-||
|--------------------------------------------------------------------------------------------||

-----------------------------------------------------------------------------------------------
=======================
=TABLATURE EXPLANATION=
=======================

* = palm mute

A.H. = Artificial Harmonic

pm..| = Palm mute

h = hammer on

p = pull off

/ = slide up

\\ = slide down

~ = Vibrato

b() = Bend

x\\ = Pick Slide

--------
--------
---12--- = Tremolo pick
----/---
----/---
----/---

---.---
--12--- = Staccato
-------
-------
-------

|     |
|     |
|*   *| = repeat from * to *
|*   *| 
|     |





Comments


Popular Institute tabs & chords
Bullet-Proof Skin Bass Tabs
Bullet-Proof Skin 1 Bass Tabs
Boom Box Tabs
Bullet-Proof Skin 1 Tabs
Bullet-Proof Skin 2 Tabs
Come On Over Tabs
God Gave Us Land Tabs
Heat Of Your Love 1 Tabs
Secrets And Lies Tabs
When Animals Attack Tabs


Song lyrics



↑ Back to top | Tablatures and chords are parodies/interpretations of the original songs. You may use it for private study, scholarship, research or language learning purposes only
© 2014 AZChords.com Contact us | Privacy policy | DMCA | Add/correct tabs | Request tabs | Top 50 tabs