>
 >
Information Age

Information Age Guitar Tabs

Institute - Information Age chords, tabs, tablatures, lyrics

Guitar lessons | Add/correct | Request | Top 50 tabs Artists:  A B C D E F G H I J K L M N O P Q R S T U V W X Y Z 0-9

Information Age Guitar Tabs – Institute

CD, Sheet music, Poster

Do you like Information Age? Share with your friends now
Tabs
Band- Institute
Song- Information Age

Tuned down half step in Drop C#


                            /0:02 Verse Riff < 5 times >  
D#|-------------------------------------------------------------------------------------------|
A#|------------------------|------------------------------------------------------------------|
F#|------------------------|*-----------------------------------------------------------------|
C#|-2-1---2-1---2-1---2-1--|*-2---6b(0.5)--2---6b(0.5)--2---6b(0.5)--2---6b(0.5)--2---6b(0.5)-|
G#|-2-1---2-1---2-1---2-1--|--2------------2------------2------------2------------2-----------|
C#|-2-1---2-1---2-1---2-1-----2------------2------------2------------2------------2-----------|
    *     *     *     *            
            
                             _____________  ___________  ______________________  
                            | 1./ 3.      |/ 2./ 4.    |/ 5.                   |/0:49 Chorus
|---------------------------|----------------------------------------------------------------|
|-----------------------------------------|------------|-----------------------|-------------|
|---------------------------|------------*|------------|-----------------------|*-14-14-14-14|
|-2---6b(0.5)--2---6b(0.5)--|-2-3---2-1--*|-0-0-----1--|-2-1---2-1---2-1=---.--|*-14-14-14-14|
|-2------------2------------|-2-3---2-1---|-0-0-----1--|-2-1---2-1---2-1=---.--|--12-12-12-12|
|-2------------2--------------2-3---2-1-----0-0---x-1----2-1---2-1---2-1=---.----------------|
                              *     *                    *     *     *  


|--------------------------------------------------------------------------------------------|
|--------------------------------------------------------------------------------------------|
|-14-14-14-14--10-10-10-10-10-10-10-10--14-14-14-14-14-14-14-14--10-10-10-10-10-10-10-10--14-|
|-14-14-14-14--10-10-10-10-10-10-10-10--14-14-14-14-14-14-14-14--10-10-10-10-10-10-10-10--14-|
|-12-12-12-12--8--8--8--8--8--8--8--8---12-12-12-12-12-12-12-12--8--8--8--8--8--8--8--8---12-|
|--------------------------------------------------------------------------------------------|


|--------------------------------------------------------------------------------------------|
|--------------------------------------------------------------------------------------------|
|-14-14-14-14-14-14-14--10-10-10-10-10-10-10-10--17-17-17-17-17-17-17-17--19-19-19-19-19-19--|
|-14-14-14-14-14-14-14--10-10-10-10-10-10-10-10--17-17-17-17-17-17-17-17--19-19-19-19-19-19--|
|-12-12-12-12-12-12-12--8--8--8--8--8--8--8--8---15-15-15-15-15-15-15-15--17-17-17-17-17-17--|
|--------------------------------------------------------------------------------------------|


                                    /1:11 Verse 2                                  /1:47 Chor
|--------------------------------------------------------------------------------------------|
|-------|--------------------------|------------Verse-Riff-[-4-times-]------------|----------|
|-19-19-|-19-19-19-19-19-19-19-19--|----------------------------------------------|-----Choru|
|-19-19-|-19-19-19-19-19-19-19-19--|------[-without-Verse-1-ending-in-1.th-]------|----------|
|-17-17-|-17-17-17-17-17-17-17-17--|-----------------repeating--------------------|----------|
|--------------------------------------------------------------------------------------------|


  us 2                                                       /2:13 Interlude
|--------------------------------------------------------------------------------------------|
|-------|---------------------------------------------------|--------------------------------|
|-s-----|-17-17-17-17-17-17-17-17--19-19-19-19-19-19-19-19--|*-7--7--7--7--7--7--7--7--7--7--|
|-------|-17-17-17-17-17-17-17-17--19-19-19-19-19-19-19-19--|*-------------------------------|
|-------|-15-15-15-15-15-15-15-15--17-17-17-17-17-17-17-17--|--------------------------------|
|--------------------------------------------------------------------------------------------|

                       4x                                                    /2:37 Chorus 3
|--------------------------------------------------------------------------------------------|
|-------------------------|-------------------------------------------------|----------------|
|-7--7---7---7---7---7---*|-7--7--7--7--7--7--7--7--------------------------|-14-14-14-14-14-|
|----11--11--11--11--11--*|-------------------------2-1---2-1---2-1---2-1---|-14-14-14-14-14-|
|-------------------------|-------------------------2-1---2-1---2-1---2-1---|-12-12-12-12-12-|
|---------------------------------------------------2-1---2-1---2-1---2-1--------------------|
                                                    *     *     *     *    

|--------------------------------------------------------------------------------------------|
|--------------------------------------------------------------------------------------------|
|-14-14-14--10-10-10-10-10-10-10-10--14-14-14-14-14-14-14-14--10-10-10-10-10-10-10-10--14-14-|
|-14-14-14--10-10-10-10-10-10-10-10--14-14-14-14-14-14-14-14--10-10-10-10-10-10-10-10--14-14-|
|-12-12-12--8--8--8--8--8--8--8--8---12-12-12-12-12-12-12-12--8--8--8--8--8--8--8--8---12-12-|
|--------------------------------------------------------------------------------------------|


|--------------------------------------------------------------------------------------------|
|--------------------------------------------------------------------------------------------|
|-14-14-14-14-14-14--14-14-14-14-14-14-14-14--17-17-17-17-17-17-17-17--19-19-19-19-19-19-19--|
|-14-14-14-14-14-14--14-14-14-14-14-14-14-14--17-17-17-17-17-17-17-17--19-19-19-19-19-19-19--|
|-12-12-12-12-12-12--13-13-13-13-13-13-13-13--15-15-15-15-15-15-15-15--17-17-17-17-17-17-17--|
|--------------------------------------------------------------------------------------------|


       /2:56 Chorus 4     
|--------------------------------------------------------------------------------------------|
|-----|------------------|-------------------------------------------------------------------|
|-19--|------Chorus------|-17-17-17-17-17-17-17-17--19-19-19-19-19-19-19-19--17-17-17-17-17--|
|-19--|------------------|-17-17-17-17-17-17-17-17--19-19-19-19-19-19-19-19--17-17-17-17-17--|
|-17--|------------------|-15-15-15-15-15-15-15-15--17-17-17-17-17-17-17-17--15-15-15-15-15--|
|--------------------------------------------------------------------------------------------|


|------------------------------------------------------------||
|------------------------------------------------------------||
|-17-17-17--19-19-19-19-19-19-19-19--14~~----let-------------||
|-17-17-17--19-19-19-19-19-19-19-19--14~~---------ring-------||
|-15-15-15--17-17-17-17-17-17-17-17--12~~--------------------||
|------------------------------------------------------------||

_____________________________________________________________________________________________

SECOND Guitar parts:
                                                                     _________________
   /0:30 During Verse riff                                          | 1.              |/0:49 
D#|-----------------------------------------------------------------|------------------------|
A#|--8~--8~--8~--8~--.---7b(8)---.---7b(8)---.----8~--8~--8~--8~--.----7b(8)---.------|--17--|
F#|*----------------------------------------------------------------|----------------*|------|
C#|*----------------------------------------------------------------|----------------*|------|
G#|-----------------------------------------------------------------|-----------------|------|
C#|------------------------------------------------------------------------------------------|


 Chorus 
|--------------------------------------------------------------------------------------------|
|-17-17-17-17-17-17-17-17-17-17-17--------------17-17-17-17-17-17-17-17-17-17-17-17----------|
|-----------------------------------12/14-12~----------------------------------------12/14-12|
|--------------------------------------------------------------------------------------------|
|--------------------------------------------------------------------------------------------|
|--------------------------------------------------------------------------------------------|


|--------------------------------------------------------------------------------------------|
|--------------------------------------------------------------------------------------------|
|-~----17-17-17-17-17-17-17-17-17-17-17-17--------------17-17-17-17-17-17-17-17--19-19-19-19-|
|-------------------------------------------12/14-12~---17-17-17-17-17-17-17-17--19-19-19-19-|
|--------------------------------------------------------------------------------------------|
|--------------------------------------------------------------------------------------------|


                                /1:30 During Verse 2 (Whammy effect)
|---------------------------------12--------------15~----12~---------------------------------|
|----------------------------|-|-------12----------------------------------------------------|
|-19-19-19-19----------------|-|------------12~----------------14~~---\\11~----12~----9-----14|
|-19-19-19-19----------------|-|-------------------------------------------------------------|
|--------------------------- |-|-------------------------------------------------------------|
|--------------------------------------------------------------------------------------------|


                                               /1:47 Chorus 2      /2:27 
|--------------------------------------------------------------------------------------------|
|-------------------------------------------|-|------------------||--------------------------|
|-~~---\\11~----12~----9------14~~---\\11~----|-|------Chorus------||-/19--19--19--19--19--19--|
|-------------------------------------------|-|------------------||--------------------------|
|-------------------------------------------|-|------------------||--------------------------|
|--------------------------------------------------------------------------------------------|

                                                                                 /2:37 Chorus
|--------------------------------------------------------------------------------------------|
|-----------------------------------------------------------------------------|-|--17-17-17--|
|-19--19--19--19--19--19--18--18--18--18--18--19--19--19--19--19--19--19--19--|-|------------|
|-----------------------------------------------------------------------------|-|------------|
|-----------------------------------------------------------------------------|-|------------|
|--------------------------------------------------------------------------------------------|

 3
|--------------------------------------------------------------------------------------------|
|-17-17-17-17-17-17-17-17-17--------------17-17-17-17-17-17-17-17-17-17-17-17--------------17|
|-----------------------------12/14-12~----------------------------------------12/14-12~-----|
|--------------------------------------------------------------------------------------------|
|--------------------------------------------------------------------------------------------|
|--------------------------------------------------------------------------------------------|


|--------------------------------------------------------------------------------------------|
|-17-17-17-17-17-17-17-17-17-17-17-17-17-17-17-17-17-17--------------------------------------|
|--------------------------------------------------------17-17-17-17-17-17-17-17--19-19-19-19|
|--------------------------------------------------------17-17-17-17-17-17-17-17--19-19-19-19|
|--------------------------------------------------------------------------------------------|
|--------------------------------------------------------------------------------------------|


                /2:56 Chorus 4     /3:12
|--------------------------------------------------------------------------------------------|
|--------------|------------------|----------------------------------------------------------|
|-19-19-19-19--|------Chorus------|(12)---12/14~-----------12/14-12~----(12)---12/14~--------|
|-19-19-19-19--|------------------|----------------------------------------------------------|
|--------------|------------------|----------------------------------------------------------|
|--------------------------------------------------------------------------------------------|


|--------------------------------------------------------------------------||
|--------------------------------------------------------------------------||
|--12/14-12~-----(12)---12/14~----------12----14~-~-~-~--until-------------||
|---------------------------------------------------------------the--end---||
|--------------------------------------------------------------------------||
|--------------------------------------------------------------------------||


-----------------------------------------------------------------------------------------------
=======================
=TABLATURE EXPLANATION=
=======================

* = palm mute

A.H. = Artificial Harmonic

pm..| = Palm mute

h = hammer on

p = pull off

/ = slide up

\\ = slide down

~ = Vibrato

b() = Bend

x\\ = Pick Slide

--------
--------
---12--- = Tremolo pick
----/---
----/---
----/---

---.---
--12--- = Staccato
-------
-------
-------

|     |
|     |
|*   *| = repeat from * to *
|*   *| 
|     |





Comments


Popular Institute tabs & chords
Bullet-Proof Skin 1 Bass Tabs
Ambulances Live Chords
Boom Box Tabs
Bullet-Proof Skin Tabs
Bullet-Proof Skin 2 Tabs
Come On Over Tabs
Heat Of Your Love Tabs
Save The Robots Tabs
Seventh Wave Tabs
Ambulances Live Ukulele


Song lyrics



↑ Back to top | Tablatures and chords are parodies/interpretations of the original songs. You may use it for private study, scholarship, research or language learning purposes only
© 2014 AZChords.com Contact us | Privacy policy | DMCA | Add/correct tabs | Request tabs | Top 50 tabs