>
 >
Boom Box

Boom Box Guitar Tabs

Institute - Boom Box chords, tabs, tablatures, lyrics

Guitar lessons | Add/correct | Request | Top 50 tabs Artists:  A B C D E F G H I J K L M N O P Q R S T U V W X Y Z 0-9

Boom Box Guitar Tabs – Institute

CD, Sheet music, Poster

Do you like Boom Box? Share with your friends now
Tabs
Band- Institute
Song- Boom Box

Tuned down half step in Drop C# 


                           /0:05 Main Riff          4x  /0:14 Verse 1
D#|--------------------------------------------------------------------------------------------|
A#|-----------------------|----------------------------|---------------------------------------|
F#|-----[Drums-part]------|*--------------------------*|-7-7~-~-------------[Bass-part]--------|
C#|-----------------------|*-3---5---0--0-3----5--0---*|-7-7~-~--------------------------------|
G#|-----------------------|--3---5---0--0-3----5--0----|-5-5~-~--------------------------------|
C#|--------------------------3---5---0--0-3----5--0--------------------------------------------|

       /0:34                                                                                  /
|--------------------------------------------------------------------------------------------|
|--------------------------------------------------------------------------------------------|
|--------------------------------------------------------------------------------------------|
|------19)))---------/21))---------\9))---------/11))---------------/12)))-------------------|
|--------------------------------------------------------------------------------------------|
|--------------------------------------------------------------------------------------------|

 /0:56 Pre-Chorus 1                                 /1:05 Chorus 1         /1:25 Verse 2
|--------------------------------------------------------------------------------------------|
|--------------------------------------------------|----------------------|-3-~-~------------|
|--------------------------------------------------|-----Main-Riff--8x----|-2-~-~------------|
|--4)))--------------5))-------4)))----------------|----------------------|-0-~-~------------|
|--------------------------------------------------|----------------------|-0-~-~------------|
|---------------------------------------------------------------------------0-~-~------------|


                                  /1:45                                         /1:55 Pre-Cho 
|--------------------------------------------------------------------------------------------|
|------------------------------------------------------------------------------|-------------|
|----[Bass-part]---------------------------------------------------------------|-----Pre-Chor|
|---------------------------------11)))-----------------12)))------------------|-------------|
|------------------------------------------------------------------------------|-------------|
|--------------------------------------------------------------------------------------------|


  rus 2   /2:06 Chorus 2         /2:25 Post-Chorus 2                                  /2:36 I 
|--------------------------------------------------------------------------------------------|
|--------|----------------------|----------------------------------------------------|--3-3-3|
|-us-----|-----Main-Riff--8x----|*--------------------------------------------------*|*-2-2-2|
|--------|----------------------|*-3---5---0--0-3----5--0----3---5---0--0-3----5.---*|*-0-0-0|
|--------|----------------------|--3---5---0--0-3----5--0----3---5---0--0-3----5.----|--0-0-0|
|----------------------------------3---5---0--0-3----5--0----3---5---0--0-3----5.-------0-0-0|


  nterlude
|--------------------------------------------------------------------------------------------|
|-3-3--3-3--3-3-3-3---3-3-3-3-3--3-3--3-3-3-3------------------------------------------------|
|-2-2--2-2--2-2-2-2---2-2-2-2-2--2-2--2-2-2-2---4-4-4-4-4--4-4--4-4-4-4---4-4-4-4-4--4-4--4-4|
|-0-0--0-0--0-0-0-0---0-0-0-0-0--0-0--0-0-0-0---4-4-4-4-4--4-4--4-4-4-4---4-4-4-4-4--4-4--4-4|
|-0-0--0-0--0-0-0-0---0-0-0-0-0--0-0--0-0-0-0---2-2-2-2-2--2-2--2-2-2-2---2-2-2-2-2--2-2--2-2|
|-0-0--0-0--0-0-0-0---0-0-0-0-0--0-0--0-0-0-0------------------------------------------------|


      4x  /3:17 Bridge
|--------------------------------------------------------------------------------------------|
|--------|-----------------------------------------------------------------------------------|
|-4-4---*|-----------------------------------------------------------------------------------|
|-4-4---*|--5-5-5-5-5--5-5--5-5-5-5---5-5-5-5-5--5-5--5-5-5-5---2-2-2-2-2--2-2--2-2-2-2---2-2|
|-2-2----|--5-5-5-5-5--5-5--5-5-5-5---5-5-5-5-5--5-5--5-5-5-5---2-2-2-2-2--2-2--2-2-2-2---2-2|
|-----------5-5-5-5-5--5-5--5-5-5-5---5-5-5-5-5--5-5--5-5-5-5---2-2-2-2-2--2-2--2-2-2-2---2-2|


                                                          /3:32                   /3:41 Choru
|--------------------------------------------------------------------------------------------|
|-----------------------8-8-8-8-8-8-8-8-8-8-8-8-8-8-8-8--|-----------------------|-----------|
|-----------------------7-7-7-7-7-7-7-7-7-7-7-7-7-7-7-7--|------Main-Riff--4x----|-----Main-R|
|-2-2-2--2-2--2-2-2-2---5-5-5-5-5-5-5-5-5-5-5-5-5-5-5-5--|-----------------------|-----------|
|-2-2-2--2-2--2-2-2-2---5-5-5-5-5-5-5-5-5-5-5-5-5-5-5-5--|-----------------------|-----------|
|-2-2-2--2-2--2-2-2-2---5-5-5-5-5-5-5-5-5-5-5-5-5-5-5-5--------------------------------------|


 s 3                                                                /4:10 Ending
|--------------------------------------------------------------------------------------------|
|------------|-----------------------------------------------------|-------------------------|
|-iff--9x----|-----------------------------------------------------|-------------------------|
|------------|-3---5---0--0-3----5--0----3---5---0--0-3----5--3--5-|-0----3---5---0----3--5--|
|------------|-3---5---0--0-3----5--0----3---5---0--0-3----5--3--5-|-0----3---5---0----3--5--|
|--------------3---5---0--0-3----5--0----3---5---0--0-3----5--3--5---0----3---5---0----3--5--|
 
                           
|--------------------------------------------------------------------------------------------|
|-------------------------|-----------------------------------------------|------------------|
|-------------------------|*---------------------------------------------*|------------------|
|-0----3---5--...--3--5---|*-0----3---5---0----3--5---0----3----0--3--5--*|-0----3---5---0---|
|-0----3---5--...--3--5---|--0----3---5---0----3--5---0----3----0--3--5---|-0----3---5---0---|
|-0----3---5--...--3--5------0----3---5---0----3--5---0----3----0--3--5-----0----3---5---0---|


|------------------------------------------------||
|------------------------------------------------||
|------------------------------The---------------||
|-3--5---0----3----0-...------------end.---------||
|-3--5---0----3----0-....------------------------||
|-3--5---0----3----0-.....-----------------------||

_____________________________________________________________________________________________

SECOND Guitar parts:

     /1:15 Second part of Chorus                      /1:25              /2:16
D#|--------------------------------------------------------------------------------------------|
A#|-|------------------------------------------------|----------------|-|----------------------|
F#|-|*--20b(22)----19b(21)----17b(19)----15b(17)----*|-19~------------|-|----2.pt-of-Chorus----|
C#|-|*----------------------------------------------*|----------------|-|----------------------|
G#|-|------------------------------------------------|----------------|-|----------------------|
C#|--------------------------------------------------------------------------------------------|

 /2:26                                    /2:36 Interlude                                     /
|--------------------------------------------------------------------------------------------|
|----------------------------------------|---------------------------------------------------|
|-17b(19)-~-~-~-~-~----let-ring---~--~---|*--------------------------------------------------|
|----------------------------------------|*-/5~~----/17~~--\16~~------------------/5~~----/17|
|----------------------------------------|---------------------------------------------------|
|--------------------------------------------------------------------------------------------|

                                           /2:57
|--------------------------------------------------------------------------------------------|
|-----------------------------------------|--------------------------------------------------|
|----------------------------------------*|-(19.)(19.)(19.)(19.)(19.)(19.)(19.)(19.)(19.)(19)|
|-~~--\16~~--/19~~-----------------------*|--17~~--------------------------------------------|
|-----------------------------------------|--------------------------------------------------|
|--------------------------------------------------------------------------------------------|


|--------------------------------------------------------------------------------------------|
|--------------------------------------------------------------------------------------------|
|-(19.)(19.)(19.)(19.)(19.)(19.)(19.)(19.)(19.)(19.)(19.)(19.)(19.)(19.)(19.)(19.)-<-<-<-*---|
|-/4~~-------/7~~----------------------------------------------------------------------------|
|--------------------------------------------------------------------------------------------|
|--------------------------------------------------------------------------------------------|

* - this note (sound) is played by third guitar

 /3:17 Bridge
|--------------------------------------------------------------------------------------------|
|--------------------------------------------------------------------------------------------|
|--/7~-~-~--9~-~-~--11~-~-~--12~-~-~--/7~-~-~--9~-~-~--6~-~-~--4~-~-~--/7~-~-~--9~-~-~--6~-~-|
|--/x-------x-------x--------x--------/x-------x-------x-------x-------/x-------x-------x----|
|--/5~-~-~--7~-~-~--9-~-~-~--10~-~-~--/5~-~-~--7~-~-~--4~-~-~--2~-~-~--/5~-~-~--7~-~-~--4~-~-|
|--------------------------------------------------------------------------------------------|

              /3:32                  /3:52
|--------------------------------------------------------------------------------------------|
|------------|--------------------|-|--------------------------------------------------------|
|-~--4~-~-~--|---2.pt-of-Chorus---|-|-20b(22)----19b(21)----17b(19)----15b(17)----20b(22)----|
|----x-------|--------------------|-|--------------------------------------------------------|
|-~--2~-~-~--|--------------------|-|--------------------------------------------------------|
|--------------------------------------------------------------------------------------------|


|--------------------------------------------------------------------------------------------|
|--------------------------------------------------------------------------------------------|
|-19b(21)----20b(22)----19b(20)----17b(19)----15b(17)----20b(22)----19b(21)----17b(19)----15b|
|--------------------------------------------------------------------------------------------|
|--------------------------------------------------------------------------------------------|
|--------------------------------------------------------------------------------------------|


|-------------------------------------------------------------------||
|-----------------------------------------------------------------|-||
|-(17)~--~-~-(17)--(17)--(17)--(17)--(17)--(17)--~--~--~--r-14.---|-||
|-----------------------------------------------------------------|-||
|-----------------------------------------------------------------|-||
|-------------------------------------------------------------------||

-----------------------------------------------------------------------------------------------
=======================
=TABLATURE EXPLANATION=
=======================

12))) = intensify volume on your guitar

* = palm mute

A.H. = Artificial Harmonic

pm..| = Palm mute

h = hammer on

p = pull off

/ = slide up

\ = slide down

~ = Vibrato

b() = Bend

x\ = Pick Slide

--------
--------
---12--- = Tremolo pick
----/---
----/---
----/---

---.---
--12--- = Staccato
-------
-------
-------

|     |
|     |
|*   *| = repeat from * to *
|*   *| 
|     |

. = mute





Comments


Popular Institute tabs & chords
Bullet-Proof Skin 2 Tabs
Bulletproof Skin 3 Tabs
Buzz Of My System Tabs
Come On Over Tabs
God Gave Us Land Tabs
Heat Of Your Love 1 Tabs
Save The Robots Tabs
Secrets And Lies Tabs
When Animals Attack Tabs
Ambulances Live Ukulele


Song lyrics



↑ Back to top | Tablatures and chords are parodies/interpretations of the original songs. You may use it for private study, scholarship, research or language learning purposes only
© 2014 AZChords.com Contact us | Privacy policy | DMCA | Add/correct tabs | Request tabs | Top 50 tabs