» » »

Poison Well Tabs (ver.3)

Artists:  A B C D E F G H I J K L M N O P Q R S T U V W X Y Z # 

Poison Well Tabs (ver.3)

Insolence
Rating:
0/5 (0 votes)

Hard to play? Try these video lessons and learn fast.
                
Has anyone but me noticed that all the tabs for this song are the exact 
same? Don’t copy/paste!!
DROP D TUNING

Riff A 
--10-9-----------------------------------------------------------------
---------7-8-8p7-------------------------------------------------------
-7-----8---------8-----------------------------------------------------

Riff B
---------7-8-8-7-------------------------------------------------------
-7-7---8---------8-----------------------------------------------------
Riff C
-0-0-0-1--------0-1----------------------------------------------------
-0-0-0-1--------0-1----------------------------------------------------
-0-0-0-1--------0-1----------------------------------------------------
 
Riff D
-0-0-0-1-0-3-0-4-3-1---------------------------------------------------
-0-0-0-1-0-3-0-4-3-1---------------------------------------------------
-0-0-0-1-0-3-0-4-3-1---------------------------------------------------
 
So its riff A for the intro, Riff B for verse/intro part two, riff C for the 
bridge, and D for the last part of the bridge.
            
Hard to play? Try these video lessons and learn fast. | Correct




comments powered by Disqus
↑ Back to top | Tablatures and chords are parodies/interpretations of the original songs. You may use it for private study, scholarship, research or language learning purposes only