» » »

Under The Black Inverted Pentagram Tabs (ver.1)

Artists:  A B C D E F G H I J K L M N O P Q R S T U V W X Y Z # 

Under The Black Inverted Pentagram Tabs (ver.1)

Inquisition
Rating:
0/5 (0 votes)

Tabs too difficult? Try these video lessons and learn fast.
                Band:  Inquisition

Copyright (c) No Colours (2004)



**i want the spacing to look pretty, so 10 = T

Tunning D A D G B E


Riff A:                        x10
|------------------------------|
|------------------------------|
|------------------------------|
|-222297992222T7TT222297992233-|
|-2222777722227777222277772233-|
|-0000000000000000000000000011-|


Riff B:                                                            x3
|------------------------------------------------------------------|
|------------------------------------------------------------------|
|------------------------------------------------------------------|
|-2222555522222233222277772222223322225555222222332222333322222233-|
|-2222335522222233222255772222223322223355222222332222113322222233-|
|-0000333300000011000055550000001100003333000000110000111100000011-|

Riff B2:                                               x1
|------------------------------------------------------|
|------------------------------------------------------|
|------------------------------------------------------|
|-2222555522222233222277772222223322225555222222332222-|
|-2222335522222233222255772222223322223355222222332222-|
|-0000333300000011000055550000001100003333000000110000-|


Riff C:
|------------------------------------------------------------------|
|------------------------------------------------------------------|
|------------------------------------------------------------------|
|-3333222233332222333322223333222233332222333322223333222233332222-
|-1133222211332222113322221133222211332222113322221133222211332222-
|-1111000011110000111100001111000011110000111100001111000011110000-

 --------------------------------------------------------------| x1
 --------------------------------------------------------------|
 --------------------------------------------------------------|
 -333322223333222233332222333322223333222233332222333322223333-|
 -113322221133222211332222113322221133222211332222113322221133-|
 -111100001111000011110000111100001111000011110000111100001111-|

play Riff A x8
play Riff C x1


Riff D:                                                            x4
|---00--00--00--00--00--00--00--00--00--00--00--00--00--00---------|
|---00--00--00--00--00--00--00--00--00--00--00--00--00--00---------|
|---00--00--00--00--00--00--00--00--00--00--00--00--00--00---------|
|-22--22--22--333322--22--22--333322--22--22--333322--22--22556633-|
|-22--22--22--333322--22--22--333322--22--22--333322--22--22556633-|
|-00--00--00--111100--00--00--111100--00--00--111100--00--00334411-|


Riff E:                                                            x4
|------------------------------------------------------------------|
|------------------------------------------------------------------|
|-9999TTTT--------9999TTTT--------9999TTTT--------77775555---------|
|-9999TTTT222222229999TTTT222222229999TTTT222222227777555522222222-|
|-7777888822222222777788882222222277778888222222225555333322222222-|
|---------00000000--------00000000--------00000000--------00000000-|
|                                                                  |
|-12--12bhr-------12--12bhr-------12--12bhr------\10-\8--/12-------|
|------------------------------------------------------------------|
|------(is this a guitar???)---------------------------------------|
|------------------------------------------------------------------|
|------------------------------------------------------------------|
|------------------------------------------------------------------|


Riff F:
|--------------------------------------------------|
|--------------------------------------------------|
|-1111111112121212--------1111111112121212---------|
|--9-9-9-91010101022222222-9-9-9-91010101022222222-|
|-----------------22222222----------------22222222-|
|-----------------00000000----------------00000000-|

 ------------------------------------------| x3
 ------------------------------------------|
 -1111111112121212--------77775555---------|
 --9-9-9-910101010222222227777555522222222-|
 -----------------222222225555333322222222-|
 -----------------00000000--------00000000-|

Riff F2:
|--------------------------------------------------|
|--------------------------------------------------|
|-1111111112121212--------1111111112121212---------|
|--9-9-9-91010101022222222-9-9-9-91010101022222222-|
|-----------------22222222----------------22222222-|
|-----------------00000000----------------00000000-|

 ----------------------------------| x1
 ----------------------------------|
 -1111111112121212--------77775555-|
 --9-9-9-9101010102222222277775555-|
 -----------------2222222255553333-|
 -----------------00000000---------|


play Riff D x4
            
Tabs too difficult? Try these video lessons and learn fast.




comments powered by Disqus
↑ Back to top | Tablatures and chords are parodies/interpretations of the original songs. You may use it for private study, scholarship, research or language learning purposes only