» » »

Inquisition, The Initiation Tabs (ver.1)

Artists:  A B C D E F G H I J K L M N O P Q R S T U V W X Y Z # 

The Initiation Tabs (ver.1)

Inquisition Tabs
 Rating:
4/5 (4 votes)
The Initiation lessons Tabs too difficult? Try these video lessons and learn fast
1
                INQUISITION "the Initiation" tabbed on March 20, 2009.
NOTES: * I am not a fan of detuning my guitar. Inqisition uses D tuning, I transcribe 
song in standard, you should be able to play it the same to the CD as the same notes and 
without transposing as used in the original.
* This song is in 3/4 time. So better listen to the song cause you will probably get 
up in timing, and tempo.
* Tempo is mid paced ranging 85-95. Didn't find exact tempo yet, I'll leave it for 
updates.
Opener 1                 my variation
e|----------------------|-----------------------|
b|----3----3----3-------|----3----3----3--------|
g|---3----3----3------3-|*--3----3----3--------*|
d|--5----5----5---3--3--|--5----5----5----3-----|
a|-5----5----5----1-1---|*5----3----3-----1--3-*|
E|-3----3----3----------|-3----5----5--------1--|
Hidden Secret Sabbat / summoning my name / on my way to Satan / to give the kiss of shame.
Flaming Pagan fire / burning high at night / Wild copulation / in the full moon light

Opener 2 Lead(nylon classical guitar): D MAJOR SCALE =  D C Bb A G F Eb
e------------------------------------------------------|
B-------------6------------------------6---------------|
g----787-5-78-----787-5-75-----787-5-78----3-5---------|
d-5-------------5----------8-5------------3-----5~-----|
a------------------------------------------------------|
E------------------------------------------------------|
Opener 1 returns with lyrics:
Atmosphere so wicked / as the mass begins / Deep in side the forest /where the Dark Lord reigns
I renounce the God / of the Christian faith / I deny the virgin / and trample on the cross
Opener 2 returns with distorted electric, possibly with a mild chorus effect.
Play "My variation" x8 (palm mute and double last two chords for full effect)
Bridge 4x (*THIS RIFF ONLY = Rhythm change = 4/4, Tempo - slower)
e|-5--55-5-5-5--------3--33-3-3-3------|
b|-5--55-5-5-5--------3--33-3-3-3------|
g|-7--77-5-5-5--X2----5--55-3-3-3--X2--|
d|-7--77-7-7-7--------5--55-5-5-5------|
a|-5--55-7-7-7--------3--33-5-5-5------|
E|-5--55-5-5-5--------3--33-3-3-3------|
   d  du d.d d        d  du d.d d
4x with lyrics:
O' Master grant me your knowledge
O' Master grant me your power
Take me and teach me your ways
I will serve you forever
G-major RIFF same arpeggios as in the Opener played throughout. (could be arranged for 
guitars - one just chord, one arpeggios, and one heavy BASS)
e|-------------------------|
b|-------------------------|
g|-------------3-333-------|
d|-5-555-5-555-3-333-------|
a|-5-555-5-555-1-111-3-3-6-|
E|-3-333-3-333-------1-1-4-|
Then repeat Opener 1 with lyrics,
with my human blood / I sign my secret name / in the book of shadows / I will now remain
invocation chanted / standing in a circle / in the name of Satan / ceremony ends....
and Opener 2 played with a NYLON string acoustic till the end, fade out.
Everyone should worship Satan to this song! I most certainly will!
            
Submit corrections

comments powered by Disqus
↑ Back to top | Inquisition Tabs for The Initiation. Lyrics for acoustic guitar and electric guitar. 1 Tablatures and chords are parodies/interpretations of the original songs. You may use it for private study, scholarship, research or language learning purposes only