» » »

Inquisition, Summoned By Ancient Wizard Under A Black Moon Tabs (ver.1)

Artists:  A B C D E F G H I J K L M N O P Q R S T U V W X Y Z # 

Summoned By Ancient Wizard Under A Black Moon Tabs (ver.1)

Inquisition Tabs
Rating:
0/5 (0 votes)
Summoned By Ancient Wizard Under A Black Moon lessons Tabs too difficult? Try these video lessons and learn fast
                



Band:  Inquisition
Label: Sylphorium Records 1998.




.  - palm mute                  /  - slide up to
\  - slide down to              ~  - vibrato
h  - hammer on                  b  - bend
p  - pull off                        Suffixes for bend
ph - pinch harmonic             f  - full bend    h - half bend
r  - release                    t  - tap bend
X  - percussion mute            ~  - vibrato bend
@  - slight palm mute           () - ghost note, sustained note
"  - tremolo pick               ^V - Downstroke - Upstroke


"INQUISITION IS A TRUE UNHOLY BLACK METAL CULT" HAIL!!!


Tunning D G C F A D


Riff A: x 2


|---------------------------------------------------------------------|
|----0-0-----0-1-0-----0-0--------0-----0-0-----0-1-0-----0-0---------|
|------------------------------2--------------------------------------|
|-2-------2---------2-------2--------2-------2---------2--------5225--|
|-2-------2---------2-------2--------2-------2---------2--------5225--|
|-0-------0---------0-------0--------0-------0---------0--------3003--|


 ---------------------------------------------------------------------|
 ----0-0-----0-1-0-----0-0--------0-----0-0-----0-1-0-----0-0---------|
 ------------------------------2--------------------------------------|
 -2-------2---------2-------2--------2-------2---------2--------5223--|
 -2-------2---------2-------2--------2-------2---------2--------5223--|
 -0-------0---------0-------0--------0-------0---------0--------3001--|


Riff B: x 3

     ^             ^             ^
|----0-------------0-------------0--------------------|
|----0-------------0-------------0--------------------|
|----0-------------0-------------0----------57--------|
|-2-----5223----2-----5223----2-----5223----57--5223--|
|-2-----5223----2-----5223----2-----5223----35--5223--|
|-0-----3001----0-----3001----0-----3001--------3001--|


Riff B2:x 1

     ^             ^             ^
|----0-------------0-------------0------------------------|
|----0-------------0-------------0------------------------|
|----0-------------0-------------0-----------57------5----|
|-2-----5223----2-----5223----2-----5223-----57----5---5~-|
|-2-----5223----2-----5223----2-----5223-----35--3--------|
|-0-----3001----0-----3001----0-----3001------------------|


Riff C:x 3

     ^               ^               ^
|----0---------------0---------------0-------------------------|
|----0---------------0---------------0-------------------------|
|----0------5--------0------5--------0------5-----75------5----|
|-2-------5---5~--2-------5---5~--2-------5---5~--53----5---5~-|
|-2-----3---------2-----3---------2-----3---------53--3--------|
|-0---------------0---------------0----------------------------|


Riff C2:x 1

     ^               ^               ^
|----0---------------0---------------0----------------|
|----0---------------0---------------0----------------|
|----0------5--------0------5--------0------5-----75--|
|-2-------5---5~--2-------5---5~--2-------5---5~--53--|
|-2-----3---------2-----3---------2-----3---------53--|
|-0---------------0---------------0-------------------|


Fill: x 8             Fill 2: x 1


|--------------0----| |-----------|
|------------0---0--| |-----------|
|----------1--------| |-5---------|
|-2------3----------| |-5---5--4--|
|-2----2------------| |-3---5--4--|
|-0-----------------| |-----3--2--|


Riff D: x 6

         ^                 ^                 ^                 ^
|--------0-----------------0-----------------0-----------------0----------|
|--------0-----------------0-----------------0-----------------0----------|
|--------0--------5--------0--------5--------0--------5--------0-------7--|
|-22222----22222--3-22222----22222--3-22222----22222--3-22222----22222-5--|
|-22222----22222--3-22222----22222--3-22222----22222--3-22222----22222-5--|
|-00000----00000----00000----00000----00000----00000----00000----00000----|


Fill: x 8   Fill 2: x 1
Riff D: x 4
Fill: x 8   Fill 2: x 1


Riff E: x 4

  ^            ^            ^            ^
|-0------------0------------0------------0-----------0-----------0--|
|-0------------0------------0------------0-------0-0---------0-0----|
|-0------------0------------0------------0--5--5--------4--4--------|
|----2------------2------------2------------5-----------4-----------|
|----2--2-2-2-----2--2-2-2-----2--2-2-2-----3-----------2-----------|
|----0--0-0-0-----0--0-0-0-----0--0-0-0-----------------------------|

Riff F: x 4


|--------0-------------1------|
|------1---1---------3---3----|
|-2--2-------2--2--2-------2--|
|-2-------------2-------------|
|-0-------------0-------------|
|-----------------------------|


Riff G: x 1

|----3---------3----------1---------1--------|
|------3---3-----3---3------1---1-----1---1--|
|-5------5---------3----3-----3---------3----|
|-5----------5----------3---------3----------|
|-3----------5----------1---------3----------|
|------------3--------------------1----------|


Riff F: x 4  Riff G: x 1
Riff F: x 4  Riff G: x 1
Riff F: x 4  Riff G: x 1
Riff F: x 4  Riff G: x 1
Riff F: x 4  Riff G: x 1
Riff G: x 1


Riff H: x 5

|--------0-------------1-------------0-------------|
|------1---1---------3---3---------1---1-----------|
|-2--2-------2--2--2-------2--2--2-------2--2------|
|-2-------------2-------------2-------------2--66--|
|-0-------------0-------------0-------------0--66--|
|----------------------------------------------44--|

 --------0-------------1-------------0-------------|
 ------1---1---------3---3---------1---1-----------|
 -2--2-------2--2--2-------2--2--2-------2--2------|
 -2-------------2-------------2-------------2--33--|
 -0-------------0-------------0-------------0--33--|
 ----------------------------------------------11--|


Riff I: x 6


|---------------------------------------------------|
|---------------------------------------------------|
|-2-----2-----2-----2--3--2-----2-----2-----2----3--|
|-2--6--2--3--2--6--2--3--2--6--2--3--2--6--2----3--|
|-0--6--0--3--0--6--0--1--0--6--0--3--0--6--0--1-1--|
|----4-----1-----4-----------4-----1-----4----------|


Riff J: x 9


|--------------------------------------0--|
|----------------------------------0-6----|
|-99979997999799979997999799799--7--------|
|-77777777777777777777777777777--5--------|
|-77777777777777777777777777777-----------|
|-----------------------------------------|

Riff J Fadeout: x 2
            
Submit corrections

comments powered by Disqus
↑ Back to top | Inquisition Tabs for Summoned By Ancient Wizard Under A Black Moon. Lyrics for acoustic guitar and electric guitar. Tablatures and chords are parodies/interpretations of the original songs. You may use it for private study, scholarship, research or language learning purposes only