» » »

Inquisition, Rituals Of Human Sacrifice For Lord Baal Tabs (ver.1)

Artists:  A B C D E F G H I J K L M N O P Q R S T U V W X Y Z # 

Rituals Of Human Sacrifice For Lord Baal Tabs (ver.1)

Inquisition Tabs
 Rating:
4/5 (4 votes)
Rituals Of Human Sacrifice For Lord Baal lessons Tabs too difficult? Try these video lessons and learn fast
1
                Tunning D G C F A D

 Riff A:
|-----------0---------------0---------------0----------------------
|---------1---1-----------1---1-----------1---1--------------------
|-2-----2-------2-2-----2-------2-2-----2-------2-5-------7--------
|-2---2-----------2---2-----------2---2-----------5-------5--------
|-0---------------0---------------0---------------3-------5--------
|------------------------------------------------------------------
                                                                    x2
 -----------0---------------0---------------0----------------------|
 ---------1---1-----------1---1-----------1---1--------------------|
 -2-----2-------2-2-----2-------2-2-----2-------2-3-------5--------|
 -2---2-----------2---2-----------2---2-----------3-------3--------|
 -0---------------0---------------0---------------1-------3--------|
 ------------------------------------------------------------------|

play Riff A x5


 Riff B:                                                            x4
|-------------------------0----------------------------------------|
|---------0-------------0-----------------0-----------0-------0----|
|-2-------5-------2---5----------2--------5---------5-------7------|
|-2---------------2--------------2----------------3-------5--------|
|-0---------------0--------------0---------------------------------|
|------------------------------------------------------------------|


play Riff A x4
play Riff B x4

 Riff C:                                                            x8
|-----0---------------0---------------0---------------0------------|
|-------------3---------------3---------------3---------------0----|
|---2---2---2---2---2---2---2---2---2---2---2---2---2---2---5------|
|---------------------------------------------------------3--------|
|-0-------0-------0-------0-------0-------0-------0----------------|
|------------------------------------------------------------------|

 Fill:
 ---------------------------------------------------------
 -----0-------0-------0-------0-------0-------0-------0---
 ---5-------5-------5-------5-------5-------5-------5-----
 -3-------3-------3-------3-------3-------3-------3-------
 -------------------------------------------------------0-
 ---------------------------------------------------------


 Riff D:                                                            x2
|------------------------------------------------------------------|
|------------------------------------------------------------------|
|-2-2-2-2-2-2-5-4-2-2-2-2-2-2-5-4-2-2-2-2-2-2-5-4-2-2-2-2-2-2-5-4--|
|-2-2-2-2-2-2-5-4-2-2-2-2-2-2-5-4-2-2-2-2-2-2-5-4-2-2-2-2-2-2-5-4--|
|-0-0-0-0-0-0-3-2-0-0-0-0-0-0-3-2-0-0-0-0-0-0-3-2-0-0-0-0-0-0-3-2--|
|------------------------------------------------------------------|

play Riff D x2


 Riff E:
|------------------------------------------------------------------
|------------------------------------------------------------------
|------------------------------------------------------------------
|-5---5--/7---7---5---5--/7---7---5---5--/7---7---5---5--/7---7----
|-5---5--/7---7---5---5--/7---7---5---5--/7---7---5---5--/7---7----
|-2/3-3--/5---5---2/3-3--/5---5---2/3-3--/5---5---2/3-3--/5---5----

 --------------------------------------------------------
 --------------------------------------------------------
 --------------------------------------------------------
 -5---5--/7---7---5---5--/7---7---5---5--/7---7---5---5--
 -5---5--/7---7---5---5--/7---7---5---5--/7---7---5---5--
 |2/3-3--/5---5---2/3-3--/5---5---2/3-3--/5---5---2/3-3--

play Riff D x2
do Riff E

play Riff C x4
fadeout Riff C (~x2)





The End
            
Submit corrections

comments powered by Disqus
↑ Back to top | Inquisition Tabs for Rituals Of Human Sacrifice For Lord Baal. Lyrics for acoustic guitar and electric guitar. 1 Tablatures and chords are parodies/interpretations of the original songs. You may use it for private study, scholarship, research or language learning purposes only