» » »

Eternal Loyalty To Our Lord Satan Tabs (ver.1)

Artists:  A B C D E F G H I J K L M N O P Q R S T U V W X Y Z # 

Eternal Loyalty To Our Lord Satan Tabs (ver.1)

Inquisition
Rating:
0/5 (0 votes)

Hard to play? Try these video lessons and learn fast.
                Band:  Inquisition
Label: No Colours (2004)


**Riff letter + 1 means 1 guitar, + a 2 means 2 guitars.
**A3 has only 2 guitars though
**
**eg, notice riff A2 has 2 guitars

Tunning D G C F A D


 Riff A2:                             x2
|-----------------------------------|
|-----------------------------------|
|------5---7---7-------5---7---7----|
|--2---5-5-7---7-5-2---5-5-7---7-5--|
|--2---3-5-5---5---2---3-5-5---5----|
|--0-----3---------0-----3----------|
|                                   |
|-----------------------------------|
|-----------------------------------|
|--99999999999999999999997777777777-|
|-----------------------------------|
|-----------------------------------|
|-----------------------------------|


 Riff B1                             4x
|-----------------------------------|
|-----------------------------------|
|--------------------------3-3------|
|--2-2-2-2-2-2-2-2-2-2-2-2-3-3-3-3--|
|--2-2-2-2-2-2-2-2-2-2-2-2-1-1-3-3--|
|--0-0-0-0-0-0-0-0-0-0-0-0-----1-1--|


 Riff B2:                            4x
|---------------------------------------|
|---------------------------------------|
|---------------------------3--3--------|
|--2-2-2-2-2-2-2-2-2-2-2-2--3--3--3--3--|
|--2-2-2-2-2-2-2-2-2-2-2-2--1--1--3--3--|
|--0-0-0-0-0-0-0-0-0-0-0-0--------1--1--|
|                                       |
|---------------------------------------|
|-----------------------------------*---|
|--999999997777777755555555101010101010-|
|---------------------------------------|
|---------------------------------------|
|---------------------------------------|
*supposed to be 8 10's not 6 (6 here for spacing)


play Riff A2 x2
play Riff B1 x4
play Riff B2 x4


Riff A1:                             x2
|-----------------------------------|
|-----------------------------------|
|------5---7---7-------5---7---7----|
|--2---5-5-7---7-5-2---5-5-7---7-5--|
|--2---3-5-5---5---2---3-5-5---5----|
|--0-----3---------0-----3----------|


play Riff A2 x4



 Riff A3                               x2
|-------------------------------------|
|-------------------------------------|
|------5---7---7---------5---7---7----|
|--2---5-5-7---7-5-2-----5-5-7---7-5--|
|--2---3-5-5---5---2-----3-5-5---5----|
|--0-----3---------0-------3----------|
|                                     |
|-------------------------------------|
|-------------------------------------|
|--9999999999999999b10r===99777777777-|
|-------------------------------------|
|-------------------------------------|
|-------------------------------------|




 Riff C:                          24x (fadeout on last 4)
|--------------------------------|
|--------------------------------|
|-------0------0------0------0---|
|---2-2----2-2----5-5----5-5-----|
|---2------2------3------5-------|
|---0------0-------------3-------|
            
Hard to play? Try these video lessons and learn fast. | Correct




comments powered by Disqus
↑ Back to top | Tablatures and chords are parodies/interpretations of the original songs. You may use it for private study, scholarship, research or language learning purposes only