» » »

Inquisition, Empire Of Luciferian Race Tabs (ver.1)

Artists:  A B C D E F G H I J K L M N O P Q R S T U V W X Y Z # 

Empire Of Luciferian Race Tabs (ver.1)

Inquisition Tabs
 Rating:
4/5 (4 votes)
Empire Of Luciferian Race lessons Tabs too difficult? Try these video lessons and learn fast
1
                Tunning D G C F A D

Riff A:                                                            x4
|-----------------------------------------------------------------|
|-----------------------------------------------------------------|
|-----------------------------------------------------------------|
|-4---5---4---4-5-4---5---4---4-5-4---5---4---4-5-4---5---4---4-5-|
|-4---5---4---4-5-4---5---4---4-5-4---5---4---4-5-4---5---4---4-5-|
|-2-0-3-0-2-0-2-3-2-0-3-0-2-0-2-3-2-0-3-0-2-0-2-3-2-0-3-0-2-0-2-3-|


Riff B:                                            x2
|-------------------------------------------------|
|-------------------------------------------------|
|-------0-----------0-----------0-----------0-----|
|-2--4--------2--4--------2--4--------2--4--------|
|-2--------3--2--------3--2--------3--2--------3--|
|-0-----------0-----------0-----------0-----------|


play Riff A x4
play Riff B x2


Riff C:                                            x8
|-------------------------------------------------|
|-------------------------------------------------|
|-------5--7--------5--7--------5--7--------5-----|
|-2--4--5--7--2--4--5--7--2--4--5--7--2--4--5--3--|
|-2--2--3--5--2--2--3--5--2--2--3--5--2--2--3--3--|
|-0-----------0-----------0-----------0--------1--|


Riff D: ("Satan Lives")            x4
|---------------------------------|
|---------------------------------|
|---------------------------------|
|-2-3-3-2-2-3-3-2-2-3-3-2-2-3-3-2-|
|-2-3-3-2-2-3-3-2-2-3-3-2-2-3-3-2-|
|-0-1-1-0-0-1-1-0-0-1-1-0-0-1-1-0-|


play Riff C x8
play Riff D x4


Riff E:                                                             x2
|------------------------------------------------------------------|
|------------------------------------------------------------------|
|------------------------------------------------------------------|
|-4444444444444444555555555555555544444444444444422222222222222222-|
|-2222222222222222222222222222222233333333333333333333333333333333-|
|------------------------------------------------------------------|

play Riff E x6


Riff F:                        x4
|----0------0------0------0---|
|---8------8------7------5----|
|-9------9------7------5------|
|-9------9------7------5------|
|-7------7------5------3------|
|-----------------------------|

play Riff F x8


Riff G:                        x4
|----1------1------1----------|
|----1------1------1----------|
|----1------1------1----------|
|-2-3----2-3----2-3----2-35---|
|-2-3----2-3----2-3----2-35---|
|-0-1----0-1----0-1----0-13---|


play Riff F x4
play Riff F x8

fadeout Riff F x4
barely audible Riff F x1



End
            
Submit corrections

comments powered by Disqus
↑ Back to top | Inquisition Tabs for Empire Of Luciferian Race. Lyrics for acoustic guitar and electric guitar. 1 Tablatures and chords are parodies/interpretations of the original songs. You may use it for private study, scholarship, research or language learning purposes only