» » »

Innocent Blood, Den Aller Frste Gang Bass tabs (ver.1)

Artists:  A B C D E F G H I J K L M N O P Q R S T U V W X Y Z # 

Den Aller Frste Gang Bass tabs (ver.1)

Innocent Blood Tabs
Rating:
0/5 (0 votes)
Den Aller Frste Gang lessons Tabs too difficult? Try these video lessons and learn fast
                There is nothing special to play at the intro.. you can play a little around if you want to.

verse:
G|----------------------------------------------------------------------------------------|
D|----------------------------------------------------------------------------------------|
A|--5-5-----------2--0--5-5------------2--0--5-5-----------2--0--5-5-----------2--0--5-5--|
E|------0-0--3-3------------0-0--3-3-------------0-0--3-3------------0-0--3-3-------------|


Brige:
G|------------------------------------|
D|------------------------------------|
A|--5-5-----5-5--2-2------0-0---------|
E|------0-0-----------3-3-------------|



Chorus:
G|------------------------------------------------------------------------------------|
D|------------------------------------------------------------------------------------|
A|-5-5-5-5-5-5-5-5-5-5------------------------------------------1-1-1-1-1-1-1-1-1-1---|
E|---------------------2-2-2-2-2-2-2-2-2-2-3--3-3-3-3-3-3-3-3-3-----------------------|
            

comments powered by Disqus
↑ Back to top | Innocent Blood Bass for Den Aller Frste Gang. Lyrics for acoustic guitar and electric guitar. Tablatures and chords are parodies/interpretations of the original songs. You may use it for private study, scholarship, research or language learning purposes only