>
 >
White Butterfly

White Butterfly Bass Tabs

Inme - White Butterfly chords, tabs, tablatures, lyrics

Guitar lessons | Add/correct | Request | Top 50 tabs Artists:  A B C D E F G H I J K L M N O P Q R S T U V W X Y Z 0-9

White Butterfly Bass Tabs – Inme

CD, Sheet music, Poster

Do you like White Butterfly? Share with your friends now
Bass TabsTabs


Bass
     Q.     Q     E   E  E     Q.     Q    S   S  E   E   
G||-------------------------|--------------------12------|
D||--5------L----12--10--9--|--9------L----9s-10-----10--|
A||-------------------------|----------------------------|
E||-------------------------|----------------------------|


  H        E   Q.        E    E  E  Q    E   Q       Q    E.  E  S E  E  E   
----------------------|---------------------------|-------------------------|
--9--------5s--7------|--9s--10--9--x----5s--7----|-------------------------|
----------------------|---------------------------|----------------------0--|
----------------------|---------------------------|--3----3---3--3-3--3-----|


  Q    E.  E  S E  E  E     Q    E.  E  S E  E  E     E   E  E  E  E  E  E  E   
-------------------------|-------------------------|---------------------------|
-------------------------|-------------------------|---------------------------|
----------------------0--|----------------------0--|--2s--3--2--2--------0--2--|
--2----2---2--2-2--2-----|--1----1---1--1-1--1-----|------------------3--------|


  Q    E.  E  S E  E  E     Q    E.  E  S E  E  E     Q    E.  E  S E  E  E   
-------------------------|-------------------------|-------------------------|
-------------------------|-------------------------|-------------------------|
----------------------0--|----------------------0--|----------------------0--|
--3----3---3--3-3--3-----|--2----2---2--2-2--2-----|--1----1---1--1-1--1-----|


  S  S  S  E.  Q    E  E  E     Q    E.  E  S E  E  E   
--5s-7s-5h-7---4----0--2--4--|-------------------------|
-----------------------------|-------------------------|
-----------------------------|----------------------0--|
-----------------------------|--3----3---3--3-3--3-----|


  Q    E.  E.  E  E  E     Q    E.  E  S E  E  E     E   E  E  E  E  E  E  E   
---------------7--5--4--|-------------------------|---------------------------|
------------------------|-------------------------|---------------------------|
------------------------|----------------------0--|--2s--3--2--2--------0--2--|
--2----2---2------------|--1----1---1--1-1--1-----|------------------3--------|


  Q    E.  E  S E  E  E     Q    E.  E  S E   E    E   
-------------------------|----------------------------|
-------4-----------4--2--|-------7--------7s--9s--10--|
--2--------2--2-2--------|--5--------5--5-------------|
-------------------------|----------------------------|


  Q    E  S  E  S  Q    S  S    Q    E  S  E  S  E  E  E   
-----------------------------|----------------------------|
-----------------------------|----------------------------|
-------3---------------------|-------3--------------------|
--1-------0s-1--0s-1----0s-1-|--1-------0s-1--0s-1--1--3--|


  Q    E.  E  S E  E  E     Q    E.  E  S E   E    E   
-------------------------|----------------------------|
-------4-----------4--2--|-------7--------7s--9s--10--|
--2--------2--2-2--------|--5--------5--5-------------|
-------------------------|----------------------------|


  Q    E  S  E  S  Q    S  S    W                   W                 
-----------------------------|-------------------|-------------------|
-----------------------------|-------------------|-------------------|
-------3---------------------|-------------------|-------------------|
--1-------0s-1--0s-1----0s-1-|--1----------------|--L----------------|


  Q    E.  E  S E  E  E     Q    E.  E  S E  E  E    
-------------------------|--------------------------|
-------------------------|--------------------------|
--0----0---0--0-0--0--2--|--3----3---3--3-3--3--5\--|
-------------------------|--------------------------|


  Q    E  S  E  S  Q    E     Q    E.  E  S Q    E     Q    E.  E.  E  E  E   
---------------------------|------------------------|-------7---5---4--2--4--|
---------------------------|------------------------|------------------------|
------------------------2--|--3----3---2--2-2----2--|--0---------------------|
--1----1--0s-1--0s-1-------|------------------------|------------------------|


  Q    E.  E.  E  E  E     Q    E  S  E  S  Q    E   
-------7---5---4--2--4--|---------------------------|
------------------------|---------------------------|
--3---------------------|------------------------2--|
------------------------|--1----1--0s-1--0s-1-------|


  Q.     Q.     T  T  S  E     Q    E.  E  S E  E  E   
----------------------------|-------------------------|
----------------------------|-------------------------|
--3------2------2s-3s-2s-0--|----------------------0--|
----------------------------|--3----3---3--3-3--3-----|


  Q    E.  E  S E  E  E     Q    E.  E  S E  E  E   
-------------------------|-------------------------|
-------------------------|-------------------------|
----------------------0--|----------------------0--|
--2----2---2--2-2--2-----|--1----1---1--1-1--1-----|


  S  S  S  E.  Q    E  E  E     Q    E.  E  S E  E  E   
--5s-7s-5h-7---4----0--2--4--|-------------------------|
-----------------------------|-------------------------|
-----------------------------|----------------------0--|
-----------------------------|--3----3---3--3-3--3-----|


  Q    E.  E  S E  E  E     Q    E.  E  S E  E  E     E   E  E  E  E  E  E  E   
-------------------------|-------------------------|---------------------------|
-------------------------|-------------------------|---------------------------|
----------------------0--|----------------------0--|--2s--3--2--2--------0--2--|
--2----2---2--2-2--2-----|--1----1---1--1-1--1-----|------------------3--------|


  Q    E.  E  S E  E  E     Q    E.  E  S E   E    E   
-------------------------|----------------------------|
-------4-----------4--2--|-------7--------7s--9s--10--|
--2--------2--2-2--------|--5--------5--5-------------|
-------------------------|----------------------------|


  Q    E  S  E  S  Q    S  S    Q    E  S  E  S  E  E  E   
-----------------------------|----------------------------|
-----------------------------|----------------------------|
-------3---------------------|-------3--------------------|
--1-------0s-1--0s-1----0s-1-|--1-------0s-1--0s-1--1--3--|


  Q    E.  E  S E  E  E     Q    E.  E  S E   E    E   
-------------------------|----------------------------|
-------4-----------4--2--|-------7--------7s--9s--10--|
--2--------2--2-2--------|--5--------5--5-------------|
-------------------------|----------------------------|


  Q    E  S  E  S  Q    S  S    W                   Q    E.  E  S E  E  E   
-----------------------------|-------------------|-------------------------|
-----------------------------|-------------------|-------------------------|
-------3---------------------|-------------------|--0----0---0--0-0--0--2--|
--1-------0s-1--0s-1----0s-1-|--1----------------|-------------------------|


  Q    E.  E  S E  E  E      Q    E  S  E  S  Q    E     Q    E.  E  S Q    E   
--------------------------|---------------------------|------------------------|
--------------------------|---------------------------|------------------------|
--3----3---3--3-3--3--5\--|------------------------2--|--3----3---2--2-2----2--|
--------------------------|--1----1--0s-1--0s-1-------|------------------------|


  Q    E.  E.  E  E  E     Q    E.  E.  E  E  E     Q    E  S  E  S  Q    E   
-------7---5---4--2--4--|-------7---5---4--2--4--|---------------------------|
------------------------|------------------------|---------------------------|
--0---------------------|--3---------------------|------------------------2--|
------------------------|------------------------|--1----1--0s-1--0s-1-------|


  Q.     Q.     Q       W.                  Q    E.  E  S E  E  E   
---------------------|-------------------|-------------------------|
---------------------|-------------------|-------------------------|
--3------2------L----|--L----------------|--0----0---0--0-0--0--2--|
---------------------|-------------------|-------------------------|


  Q    E.  E  S E  E  E      Q    E  S  E  S  Q    E     Q    E.  E  S Q    E   
--------------------------|---------------------------|------------------------|
--------------------------|---------------------------|------------------------|
--3----3---3--3-3--3--5\--|------------------------2--|--3----3---2--2-2----2--|
--------------------------|--1----1--0s-1--0s-1-------|------------------------|


  Q    E.  E  S E  E  E     Q    E.  E  S E  E  E    
-------------------------|--------------------------|
-------------------------|--------------------------|
--0----0---0--0-0--0--2--|--3----3---3--3-3--3--5\--|
-------------------------|--------------------------|


  Q    E  S  E  S  Q    E     Q    E.  E  S Q    E     Q    E.  E  S E  E  E   
---------------------------|------------------------|-------------------------|
---------------------------|------------------------|-------------------------|
------------------------2--|--3----3---2--2-2----2--|--0----0---0--0-0--0--2--|
--1----1--0s-1--0s-1-------|------------------------|-------------------------|


  Q    E.  E  S E  E  E      Q    E  S  E  S  Q    E     Q    E.  E  S Q    E   
--------------------------|---------------------------|------------------------|
--------------------------|---------------------------|------------------------|
--3----3---3--3-3--3--5\--|------------------------2--|--3----3---2--2-2----2--|
--------------------------|--1----1--0s-1--0s-1-------|------------------------|


  Q    E.  E.  E  E  E     Q    E.  E.  E  E  E     Q    E  S  E  S  Q    E   
-------7---5---4--2--4--|-------7---5---4--2--4--|---------------------------|
------------------------|------------------------|---------------------------|
--0---------------------|--3---------------------|------------------------2--|
------------------------|------------------------|--1----1--0s-1--0s-1-------|


  H        H           W                  
--------------------|-------------------||
--------------------|-------------------||
--3--------2--------|--0----------------||
--------------------|-------------------||




Duration Legend
---------------
W - whole
H - half
Q - quarter
E - 8th
S - 16th
T - 32nd
X - 64th
. - note dotted
|-n-|  - n-tuplets


Tablature Legend
----------------
L - tied note
x - dead note
g - grace note
(n) - ghost note
> - accentuded note
NH - natural harmonic
AH - artificial harmonic
TH - tapped harmonic
SH - semi harmonic
PH - pitch harmonic
h - hammer on
p - pull off
b - bend
br - bendRelease
pb - preBend
pbr - preBendRelease
brb - bendReleaseBend
\n/ - tremolo bar dip
\n - tremolo bar dive
-/n - tremolo bar Release up
/n\ - tremolo bar inverted dip
/n - tremolo bar return
-\n - tremolo bar Release down
S - shift slide
s - legato slide
/ -  slide into from below or out of upwards
\ -  slide into from above or out of downwards
~ - vibrato
W - wide vibrato
tr - trill
TP - tremolo picking
T - tapping
S - slap
P - pop
< - fade in
^ - brush up
v - brush down





Comments


Popular Inme tabs & chords
Underdose Bass Tabs
Alaya Tabs
Alaya 1 Tabs
Energy 2 Tabs
Firefly 1 Tabs
Her Mask P.A. 1 Tabs
Little Mortalities Tabs
Otherside Tabs
So You Know Tabs
Wounds 1 Tabs


Song lyrics



↑ Back to top | Tablatures and chords are parodies/interpretations of the original songs. You may use it for private study, scholarship, research or language learning purposes only
© 2014 AZChords.com Contact us | Privacy policy | DMCA | Add/correct tabs | Request tabs | Top 50 tabs