» » »

Underdose Bass tabs (ver.1)

Artists:  A B C D E F G H I J K L M N O P Q R S T U V W X Y Z # 

Underdose Bass tabs (ver.1)

Inme
Rating:
0/5 (0 votes)

Hard to play? Try these video lessons and learn fast.
                Tuning / Drop D (G, D, A, D)
Intro: x2
G|---------------------------------------------------------
D|---------------------------------------------------------
A|---------------------------------------------------------
D|-14-0-0-0-14-0-0-0-14-0-14-0-12-0-0-0-12-0-0-0-12-0-12-0-

G|-----------------------------------------------------|
D|-----------------------------------------------------|
A|-----------------------------------------------------|
D|-11-0-0-0-11-0-0-0-11-0-11-0-777-555-444-13-13-13-13-|

Verse: x8
G|-----------------------------|
D|-----------------------------|
A|-----------------------------|
D|-14-0-0-0-14-0-0-0-14-0-14-0-|

Chorus: x2
G|------------------------------------------------------------------------------|
D|------------------------------------------------------------------------------|
A|-------------------------------------12-----------------------------------------|
D|-8888888-10-10-10-10-10-10-10-12--12----12--12-12-12-12-12-12-12-14--12-12-12-|

Verse x8
Chorus x2

Interlude: Come in after Guitar
G|------------------------------------------|
D|------------------------------------------|
A|------------------------------------------|
D|-----------------------777-555-444-13-13/-|

G|---------------------------------------------------------
D|---------------------------------------------------------
A|---------------------------------------------------------
D|-14-0-0-0-14-0-0-0-14-0-14-0-12-0-0-0-12-0-0-0-12-0-12-0-

G|-------------------------------------------------|
D|-------------------------------------------------|
A|-------------------------------------------------|
D|-11-0-0-0-11-0-0-0-11-0-11-0-777-555-444-13-7-10-|

Then: x3 Fourth time stop at the line
G|--------------|-------------------------------------------|
D|--------------|-------------------------------------------|
A|-----5-----9--|---5--------------9-----7-10----9----------|
D|--55---555.-55|55---555--7-10-99---999------99---999-7-10-|

Chorus x4

Outro:
G|--------------------------------------------------------------|
D|--------------------------------------------------------------|
A|--------------------------------------------------------------|
D|-12-0-0-12-0-0-12-0-0-12-0-0-13-0-0-13-0-0-13-0-0-13-0-0-14-0-|
            
Hard to play? Try these video lessons and learn fast. | Correct




comments powered by Disqus
↑ Back to top | Tablatures and chords are parodies/interpretations of the original songs. You may use it for private study, scholarship, research or language learning purposes only