» » »

Inme, Thanks For Leaving Me Tabs (ver.1)

Artists:  A B C D E F G H I J K L M N O P Q R S T U V W X Y Z # 

Thanks For Leaving Me Tabs (ver.1)

Inme Tabs
Rating:
0/5 (0 votes)
Thanks For Leaving Me lessons Tabs too difficult? Try these video lessons and learn fast
                Tuning : Standard

N.B When it gets to the chords don't pay too much attention
to how may times it is written. It's only ment to give a rough idea
of the timing.

Intro Pt.1
-14---14---12---12---12---10---10---9---9---9---|
---0----0----0----0----0----0----0---0---0---0--|
----0----0----0----0----0----0----0---0---0---0-|
------------------------------------------------|
------------------------------------------------|
------------------------------------------------|

-14---15---12---12---12--14-10---12---9---9---9---|
---0----0----0----0----0------0----0---0---0---0--|
----0----0----0----0----0------0----0---0---0---0-|
--------------------------------------------------|
--------------------------------------------------|
--------------------------------------------------|

Intro Pt.2
----9----7----------------------------7----5-----------------|
--------------------10----9---------------------------8----7-|
--7----7----7-7---7----7-----7-7----5----5----5-5---5----5---|
-9-9--9-9--9-9---9-9--9-9---9-9----7-7--7-7--7-7---7-7--7-7--|
-------------------------------------------------------------|
-------------------------------------------------------------|

----5----2-2h3p2-----5----2-----7-----5-------7------8-|
--3----3--------3--3----3------------------------------|
-0-0--0-0---------0-0--0-0---5-----5----4h5-4--4h5-4---|
----------------------------7-7---7-7------------------|
-------------------------------------------------------|
-------------------------------------------------------|

-----0~------------     -0-|
--7--7--9--9--9-9--     -9-|
-9--9--9--9----9-9-     -9-|
-------------------     -7-|
-------------------     -0-|
------------------- x 2 ---| then roll this chord

^^^^ that bit x 2

Verse 1
-5-5-5-5-5-5-5-5-1-1-1-1-1-1-1-1-|
-3-3-3-3-3-3-3-3-1-1-1-1-1-1-1-1-|
-2-2-2-2-2-2-2-2-2-2-2-2-2-2-2-2-|
-0-0-0-0-0-0-0-0-3-3-3-3-3-3-3-3-|
-0-0-0-0-0-0-0-0-3-3-3-3-3-3-3-3-|
-----------------1-1-1-1-1-1-1-1-| x 3

"It's heriditary..."
-----------------|
-4-4-4-4-6-6-6-6-|
-3-3-3-3-5-5-5-5-|
-1-1-1-1-3-3-3-3-|
-1-1-1-1-3-3-3-3-|
-----------------| x 2

Chorus
-0--0--0--0--3--3--3--3--3--3--3--3--2--2--2--2-|
-0--0--0--0--3--3--3--3--3--3--3--3--3--3--3--3-|
-0--0--0--0--0--0--0--0--0--0--0--0--2--2--2--2-|
-2--2--2--2--x--x--x--x--0--0--0--0--0--0--0--0-|
-2--2--2--2--3--3--3--3--x--x--x--x-------------|
-0--0--0--0--------------3--3--3--3-------------| x 3
 Em          C           G           D

"Let go of our sorrows..."
-0--0--0--0--1--1--1--1--0--0--0--0--2--2--2--2-|
-0--0--0--0--1--1--1--1--1--1--1--1--4--4--4--4-|
-0--0--0--0--2--2--2--2--2--2--2--2--4--4--4--4-|
-2--2--2--2--3--3--3--3--2--2--2--2--4--4--4--4-|
-2--2--2--2--3--3--3--3--0--0--0--0--2--2--2--2-|
-0--0--0--0--1--1--1--1-------------------------| x 1
 Em          F           Am          B

Chorus Guitar 2
-0-3p2p0-3----3---3-----7---7----2-3p2---|
------------1---1--------------3-------3-|
----------------------7---7--------------|
-----------------------------------------|
-----------------------------------------|
-----------------------------------------| x 3

-0-3p2p0-3----3---3------12--12----11--11-|
------------6---6-----/10--10----12--12---|
------------------------------------------|
------------------------------------------|
------------------------------------------|
------------------------------------------| x 1

Repeat all that then

*************

Interlude Pt. 1 (big vocal solo)
-1--1--1--1--0--0--0--0--5--5--5--5--4--4--4--4--0--0--0--0--1--1--1--1-|
-1--1--1--1--1--1--1--1--x--x--x--x--5--5--5--5--1--1--1--1--3--3--3--3-|
-2--2--2--2--2--2--2--2--2--2--2--2--2--2--2--2--0--0--0--0--2--2--2--2-|
-3--3--3--3--2--2--2--2--3--3--3--3--2--2--2--2--2--2--2--2--0--0--0--0-|
-3--3--3--3--0--0--0--0--3--3--3--3--0--0--0--0--3--3--3--3--0--0--0--0-|
-------------------------------------------------3--3--3--3-------------|

-0--0--0--0--4--4--4--4-|
-0--0--0--0--0--0--0--0-|
-1--1--1--1--1--1--1--1-|
-2--2--2--2--2--2--2--2-|
-2--2--2--2--2--2--2--2-|
-0--0--0--0--0--0--0--0-|

Then
-0--0--0--0--------------------------3--3--3--3-|
-1--1--1--1--0--0--0--0--1--1--1--1--3--3--3--3-|
-2--2--2--2--0--0--0--0--0--0--0--0--0--0--0--0-|
-2--2--2--2--2--2--2--2--2--2--2--2--0--0--0--0-|
-0--0--0--0--2--2--2--2--3--3--3--3--x--x--x--x-|
-------------0--0--0--0--------------3--3--3--3-|

Guitar 2
---12--15------12--16----------12----------12-|
-10--10--------------------13----------13-----|
-------------13--13------12--12------10--10---|
----------------------------------------------|
----------------------------------------------|
----------------------------------------------|

"So I'll get right to the point"
-0--0--0--0--0--0--0--0-|
-1--1--1--1--0--0--0--0-|
-2--2--2--2--1--1--1--1-|
-2--2--2--2--2--2--2--2-|
-0--0--0--0--2--2--2--2-|
-------------0--0--0--0-|

Guitar 2
---8---7---0---5-4--|
-8---8-------0------|
--------------------|
--------------------|
--------------------|
--------------------|

Interlude Pt. 2
"If you say my name..."
-----------------3-3-3-3-3-3-3-3-3-0-0-0-0-0-0-0-0-1-1-1-1-1-1-1-1--|
-1-1-1-1-1-1-1-1-3-3-3-3-3-3-3-3-3-1-1-1-1-1-1-1-1-1-1-1-1-1-1-1-1--|
-0-0-0-0-0-0-0-0-0-0-0-0-0-0-0-0-0-2-2-2-2-2-2-2-2-2-2-2-2-2-2-2-2--|
-2-2-2-2-2-2-2-2-0-0-0-0-0-0-0-0-0-2-2-2-2-2-2-2-2-3-3-3-3-3-3-3-3--|
-3-3-3-3-3-3-3-3-x-x-x-x-x-x-x-x-x-0-0-0-0-0-0-0-0-3-3-3-3-3-3-3-3--|
-3-3-3-3-3-3-3-3-3-3-3-3-3-3-3-3-3----------------------------------|
 C               G                 Am              F

"I'll wash it away for you"
-1--1--1--1--0--0--0--0-|
-3--3--3--3--0--0--0--0-|
-2--2--2--2--1--1--1--1-|
-0--0--0--0--2--2--2--2-|
-0--0--0--0--2--2--2--2-|
-------------0--0--0--0-|

After Line "I'll give it all up for you" just repeat the first part of Interlude
pt2 4 times.

During Last 4 rounds Guitar 2 plays:
-------10--8-7---------10-7h8p7---10-8-7-|
-8--8----------8--8--8----------8--------|
-----------------------------------------|
-----------------------------------------|
-----------------------------------------|
-----------------------------------------| muck around with this riff
                                          till the end

And that's all. It won't be perfect but it should get you close. Any problems or comments
            
Submit corrections

comments powered by Disqus
↑ Back to top | Inme Tabs for Thanks For Leaving Me. Lyrics for acoustic guitar and electric guitar. Tablatures and chords are parodies/interpretations of the original songs. You may use it for private study, scholarship, research or language learning purposes only