» » »

Inme, Receipt For Life Tabs (ver.3)

Artists:  A B C D E F G H I J K L M N O P Q R S T U V W X Y Z # 

Receipt For Life Tabs (ver.3)

Inme Tabs
Rating:
0/5 (0 votes)
Receipt For Life lessons Tabs too difficult? Try these video lessons and learn fast
                Drop D Tuning

Key
x = Mute
^ = bend 
. = palm Mute
* = Harmonics


VERSE   
E|-----------------------------------------------------------------------|
B|-----------------------------------------------------------------------|
G|---------------------------5-0-3-2---------------------------7-0--3-2--|
D|----------------------------------------------------------------0------|
A|-----------------------------------------------------------------------|
D|-022--222--3333--022--222-----------022--222--3333--022--222-----------|

E|--------------------------------------------------------------------|
B|--------------------------------------------------------------------|
G|--------------------------5-0-3-2-----------------------------------|
D|-------------------------------------------------------------1-1-1--|
A|-------------------------------------------------------------1-1-1--|
D|-022--222--3333--022--222----------022--222--3333--022--222--1-1-0--|


CHORUS 
E|------------------------------------------------------------|
B|------------------------------------------------------------|
G|---------------------------------------4-------4--------4^--|
D|-5--5-5-5--5-5-5-8-8-8-8-8-8-8-2-2-2-2---2-2-2---2-2-2------|
A|-5--5-5-5--5-5-5-8-8-8-8-8-8-8-2-2-2-2---2-2-2---2-2-2------|
D|-5--5-5-5--5-5-5-8-8-8-8-8-8-8-2-2-2-2---2-2-2---2-2-2------|

E|------------------------------------------------------------|
B|------------------------------------------------------------|
G|--------------------------------------3-------3------3-5-3-2|
D|-5--5-5-5--5-5-5-8-8-8-8-8-8-8-1-1-1-1--1-1-1--1-1-1--------|
A|-5--5-5-5--5-5-5-8-8-8-8-8-8-8-1-1-1-1--1-1-1--1-1-1--------|
D|-5--5-5-5--5-5-5-8-8-8-8-8-8-8-1-1-1-1--1-1-1--1-1-1--------|

E|---------------------------------------------------------|
B|---------------------------------------------------------|
G|-------------------------------------4-------4-------4^--|
D|-5--5-5-5--5-5-5-8-8-8-8-8-8-8-2-2-2-2--2-2-2--2-2-2-----|
A|-5--5-5-5--5-5-5-8-8-8-8-8-8-8-2-2-2-2--2-2-2--2-2-2-----|
D|-5--5-5-5--5-5-5-8-8-8-8-8-8-8-2-2-2-2--2-2-2--2-2-2-----|

E|--------------------------------------------------------------|
B|--------------------------------------------------------------|
G|--------------------------------------------------------------|
D|5--5-5-5--5-5-5-8-8-8-8-8-8-8-1.-1.-1.-1.--1.-1.-1.--5.0.3.2.-|
A|5--5-5-5--5-5-5-8-8-8-8-8-8-8-1.-1.-1.-1.--1.-1.-1.--5.0.3.2.-|
D|5--5-5-5--5-5-5-8-8-8-8-8-8-8-1.-1.-1.-1.--1.-1.-1.--5.0.3.2.-|


INTERLUDE
E|------------------------------------------------------------------|
B|------------------------------------------------------------------|
G|-------------------------------------------------12-12-12--12-12^-|
D|-0--0-0-0--0-0-0-9-9-9-9-9-9-9-X-8-8-8-X-10-10-10-----------------|
A|-0--0-0-0--0-0-0-9-9-9-9-9-9-9-X-8-8-8-X-8--8--8------------------|
D|-0--0-0-0--0-0-0-9-9-9-9-9-9-9-X-8-8-8-X-8--8--8------------------|

E|--------------------------------------------------------------------|
B|--------------------------------------------------------------------|
G|-------------------------------------------------12-12-12--10-9h10p9|
D|-0--0-0-0--0-0-0-9-9-9-9-9-9-9-X-8-8-8-X-10-10-10-------------------|
A|-0--0-0-0--0-0-0-9-9-9-9-9-9-9-X-8-8-8-X-8--8---8-------------------|
D|-0--0-0-0--0-0-0-9-9-9-9-9-9-9-X-8-8-8-X-8--8---8-------------------|

E|--------------------------------------------------------------|
B|--------------------------------------------------------------|
G|--------------------------------------------------------------|
D|-0-0-0-0--0-0-0-9-9-9-9-9-9-9-X-8-8-8-X-8--8--8--5--3--2--1---|
A|-0-0-0-0--0-0-0-9-9-9-9-9-9-9-X-8-8-8-X-8--8--8--5--3--2--1---|
D|-0-0-0-0--0-0-0-9-9-9-9-9-9-9-X-8-8-8-X-8--8--8--5--3--2--1---|
 
E|-------------------------------------------------|
B|-------------------------------------------------|
G|-------------------------------------------------|
D|0--0-0-0--0-0-0-9-9-9-9-9-9-9--8-8-8-8--8-8-8-8--|
A|0--0-0-0--0-0-0-9-9-9-9-9-9-9--8-8-8-8--8-8-8-8--|
D|0--0-0-0--0-0-0-9-9-9-9-9-9-9--8-8-8-8--8-8-8-8--|

SOLO 
E|-----------------------------------------------------------------------------|
B|-----------------------------------------------------------------------------|
G|-----------------------------------------------------------------------------|
D|-------------5*-4*---------------5*-----------------5*-----------------------|
A|-------5*-4*-----5*-4*-----5*-4*---4*-5*-4*----7*-5*--5*-3*-5*--7*-7*-5*-5*--|
D|-5*-4*-----------------5*-4*---------------7*-5*-----------------------------|

E|----------------------------------------------------------------------------|
B|----------------------------------------------------------------------------|
G|----------------------------------------------------------------------------|
D|-------------5*-4*--------------5*-4*--------------5*-----------------------|
A|-------5*-4*------5*-4*----5*-4*-----5*-4*----7*-5*--5*-3*-5*--7*-7*-5*-5*--|
D|-5*-4*----------------5*-4*---------------7*-5*-----------------------------|

BRIDGE (Quiet bit)
E|--------------------------------------------------|
B|--------------------------------------------------|
G|-9--9-9-9--6-6--6-6--5----9-9-9-12-12-12--12-12^--|
D|-7--7-7-7--7-7--7-7--5--10------------------------|
A|-0--0-0-0--0-0--0-0--3----------------------------|
D|-0--0-0-0--0-0--0-0-------------------------------|

E|---------------------------------------------------|
B|---------------------------------------------------|
G|-9--9-9-9--6-6--6-6-5-----9-9-9-12-12-12--10-9h10p9|
D|-7--7-7-7--7-7--7-7-5--10--------------------------|
A|-0--0-0-0--0-0--0-0-3------------------------------|
D|-0--0-0-0--0-0--0-0--------------------------------|


E|-------------------------------------------------------|
B|-------------------------------6--10-10-10-10--8-8-8-8-|
G|-9--9-9-9--6-6--6-6-9^---------6--10-10-10-10--8-8-8-8-|
D|-7--7-7-7--7-7--7-7---10--12---0--8--8--8--8---8-8-8-8-|
A|-0--0-0-0--0-0--0-0-----10-----------------------------|
D|-0--0-0-0--0-0--0-0------------------------------------|

ENDING
E|------------------------------------------------------|
B|------------------------------------------------------|
G|----------------------5-5-5---------------------------|
D|--3-3-x-3--3-3-x-3--3-5-5-5--0---------5*-4*----------|
A|--1-1-x-1--1-1-x-1--1-1-1-1--0----5*-4*----5*-4*--4^--|
D|--1-1-x-1--1-1-x-1--1-1-1-1--0--5*--------------------|
            

comments powered by Disqus
↑ Back to top | Inme Tabs for Receipt For Life. Lyrics for acoustic guitar and electric guitar. Tablatures and chords are parodies/interpretations of the original songs. You may use it for private study, scholarship, research or language learning purposes only