» » »

Receipt For Life Tabs (ver.1)

Artists:  A B C D E F G H I J K L M N O P Q R S T U V W X Y Z # 

Receipt For Life Tabs (ver.1)

Inme
Rating:
0/5 (0 votes)
Tabs too difficult? Try these video lessons and learn fast.
                For:     Guitar
Tuning:  D,A,D,G,B,E

h = hammer on
p = pull off
^ = bend


Intro:

E---------------------------------------|
B---------------------------------------|
G---------------------------------------|
D----------------------------5-3--------|
A--------------------------------5-0----|
D-022-022-2-3333-022-022-2-2------------|

Chorus:

E--------|---------|---------------|---------|---------|------------------|
B--------|---------|---------------|---------|---------|------------------|
G--------|---------|----4-x-4-4^---|---------|---------|----3-x-3-3-5-3-2-|
D----5---|----8----|----2-x-2------|----5----|----8----|----1-x-1---------|
A----5---|----8----|----2-x-2------|----5----|----8----|----1-x-1---------|
D----5---|----8----|----2-x-2------|----5----|----8----|----1-x-1---------|

Interlude:

E-------|-------|-------|
B-------|-------|-------|
G-------|-------|-------|
D---0---|---9---|---8---|
A---0---|---9---|---8---|
D---0---|---9---|---8---|

Then there are variations of the little riffs played
hers a few examples

E-----------------|----------------------|
B-----------------|----------------------|
G-12-12-12-12-12^-|-12-12-12-10-9h10p9-5-|
D-----------------|----------------------|
A-----------------|----------------------|
D-----------------|----------------------|


Then i couldnt be bothered to work all the other chords out, but the
chords played with effect are below (to give u an idea of where the other chords
are:

E-5---|---9---|---8---|  then after each turn of playing the chords
B-5---|---9---|---8---|  one of the riffs from earlier are played
G-7---|--11---|--10---|
D-7---|--11---|--10---|
A-5---|---9---|---8---|
D-----|---9---|---8---|

E-----8----8-|
B----10----8-| these are the last 2 chords played
G----10---10-|
D-----8----8-|
A------------|
D------------|

Note: this song took me like 10 minutes to get correct, this is just the basics
and it is basics which are correct. So this is for u my friend dwain!!! i hope u 
can learn from this tab my friend. and bcos its basic take no notice of how many
times the i placed the chords, u need to work out your own strumming patterns.
Dont go makin stupid corrections like for example ' u have one colon out of place
it took me no effort to tab this, so enjoy it anyway!!!!!!!!
                                      Haz
            
Tabs too difficult? Try these video lessons and learn fast.


comments powered by Disqus
↑ Back to top | Tablatures and chords are parodies/interpretations of the original songs. You may use it for private study, scholarship, research or language learning purposes only