>
 >
Nova Armada

Nova Armada Guitar Tabs

Inme - Nova Armada chords, tabs, tablatures, lyrics

Guitar lessons | Add/correct | Request | Top 50 tabs Artists:  A B C D E F G H I J K L M N O P Q R S T U V W X Y Z 0-9

Nova Armada Guitar Tabs – Inme

CD, Sheet music, Poster

Do you like Nova Armada? Share with your friends now
Tabs
Band: InME


Intro
e|--------------------------------------------------------------------------|
g|--------------------------------------------------------------------------|
b|--------------------------------------------------------------------------|
d|--------------------------------------------------------------------------|
a|--------------------------------------------------------------------------|
D|-12h15-0-0-0-0-12h15-11h14-0-0-0-0-12h15-14h17-0-0-0-0-14h17-15h18-14h17--|

e|--------------------------------------------------------------------------|
b|-----------------------------------------------------5*-------------------|
g|--------------------------------------------------------------------------|
d|----------------------------------------8--11--5--4-----------------------|
a|----------------------------------------8--11--5--4-----------------------|
D|-12h15-0-0-0-0-12h15-11h14--------------8--11--5--4-----------------------|

e|--------------------------------------------------------------------------|
g|--------------------------------------------------------------------------|
b|--------------------------------------------------------------------------|
d|--------------------------------------------------------------------------|
a|--------------------------------------------------------------------------|
D|-12h15-0-0-0-0-12h15-11h14-0-0-0-0-12h15-14h17-0-0-0-0-14h17-15h18-14h17--|

e|--------------------------------------------------------------------------|
g|--------------------------------------------------------------------------|
b|--------------------------------------------------------------------------|
d|---------------------------------10/12--------5/7-------------------------|
a|-------3-5---------5-7-------12------------7-------------------------------|
D|-0-5-5-------0-7-7--------0-------------0---------------------------------|
   .           .            .             .

Verse- First bit all palm muted
e|------------------|
g|------------------|
b|------------------|
d|--0--10--3--5-----|
a|--0--10--3--5-----|
D|--0--10--3--3-----| x2
    .  .   .  .

e|--------------------------------------------------------------------------|
b|--------------------------------------------------------------------------|
g|--------------------------------------------------------------------------|
d|--8--10---7--7-----8--10--1-----------------------------------------------|
a|--8--10---5--5-----8--10--1-----------------------------------------------|
D|--8--10--(5)-------8--10--1-----------------------------------------------|

Chorus
e|--------------------------------------------------------------------------|
b|--------------------------------------------------------------------------|
g|-(11)-(7)-(9)---(7)-(9)--(11)-(7)-(9)-------------------------------------|
d|--9----5---7--5--5---7----9----5---7--12--10--10--10----------------------|
a|--9----5---7--3--5---7----9----5---7--10--10--8---10----------------------|
D|--9----5---7-----5---7----9----5---7--10--10------------------------------|


Verse- First bit all palm muted
e|------------------|
g|------------------|
b|------------------|
d|--0--10--3--5-----|
a|--0--10--3--5-----|
D|--0--10--3--3-----| x2
    .  .   .  .

e|--------------------------------------------------------------------------|
b|--------------------------------------------------------------------------|
g|--------------------------------------------------------------------------|
d|--8--10---7--7-----8-----------10-----------------1-----1-----1-----------|
a|--8--10---5--5-----8-8-8-8-8-8-10-10-10-10-10-10--1-1-1-1-1-1-1-----------|
D|--8--10--(5)-------8-8-8-8-8-8-10-10-10-10-10-10--1-1-1-1-1-1-1-----------|
                       . . . . .    .   .  .  .  .    . .   . .
Chorus
e|--------------------------------------------------------------------------|
b|--------------------------------------------------------------------------|
g|-(11)-(7)-(9)---(7)-(9)--(11)-(7)-(9)-------------------------------------|
d|--9----5---7--5--5---7----9----5---7--12--10--10--10----------------------|
a|--9----5---7--3--5---7----9----5---7--10--10--8---10----------------------|
D|--9----5---7-----5---7----9----5---7------10------10----------------------|

Breakdown
e|--------------------------------------------------------------------------|
b|------------------------5--5------------------3------------------3-3------|
g|------------------------8--8---------------5--5--5---------------5-5------|
d|--3--2--1--0--------------------------------------------------------------|
a|--3--2--1--0-0-0-0-0---------10--10--10--------------10-10-10-------------|
D|--3--2--1--0-0-0-0-0---------10--10--10--------------10-10-10-------------|
             . . . . .

e|--------------------------------------------------------------------------|
b|------------------------5--5------11-------11------11------11-------------|
g|------------------------8--8------10-------10------10------10-------------|
d|--3--2--1--0--------------------------------------------------------------|
a|--3--2--1--0-0-0-0-0---------8-8-----8-8------8-8-----8-8-----------------|
D|--3--2--1--0-0-0-0-0---------8-8-----8-8------8-8-----8-8-----------------|
               . . . .         . .     . .      . .     . .
x2
Lead-Trem Picked
e|--------------------------------------------------------------------------|
b|-18-17-15-17-18-17-15-17--16-15-13-15-16-15-13-15-------------------------|
g|--------------------------------------------------------------------------|
d|--------------------------------------------------------------------------|
a|--------------------------------------------------------------------------|
D|--------------------------------------------------------------------------|

e|-------------------------------18-17-15-17-18-17-15-17--------------------|
b|-18-17-15-17-18-17-15-17--------------------------------------------------|
g|--------------------------------------------------------------------------|
d|--------------------------------------------------------------------------|
a|--------------------------------------------------------------------------|
D|--------------------------------------------------------------------------|


Chorus
e|--------------------------------------------------------------------------|
b|--------------------------------------------------------------------------|
g|-(11)-(7)-(9)---(7)-(9)--(11)-(7)-(9)-------------------------------------|
d|--9----5---7--5--5---7----9----5---7--12--10--10--10----------------------|
a|--9----5---7--3--5---7----9----5---7--10--10--8---10----------------------|
D|--9----5---7-----5---7----9----5---7------10------10----------------------|



Outro
Intro
e|--------------------------------------------------------------------------|
g|--------------------------------------------------------------------------|
b|--------------------------------------------------------------------------|
d|--------------------------------------------------------------------------|
a|--------------------------------------------------------------------------|
D|-12h15-0-0-0-0-12h15-11h14-0-0-0-0-12h15-14h17-0-0-0-0-14h17-15h18-14h17--|

e|--------------------------------------------------------------------------|
b|----------------------------------------------5*--------------------------|
g|--------------------------------------------------------------------------|
d|--------------------------------8--11--5--4-------------------------------|
a|--------------------------------8--11--5--4-------------------------------|
D|-12h15-0-0-0-0-12h15-11h14------8--11--5--4-------------------------------|

e|--------------------------------------------------------------------------|
g|--------------------------------------------------------------------------|
b|--------------------------------------------------------------------------|
d|--------------------------------------------------------------------------|
a|--------------------------------------------------------------------------|
D|-12h15-0-0-0-0-12h15-11h14-0-0-0-0-12h15-14h17-0-0-0-0-14h17-15h18-14h17--|

e|--------------------------------------------------------------------------|
g|--------------------------------------------------------------------------|
b|--------------------------------------------------------------------------|
d|--------------------------------------------------------------------------|
a|-------3-5-------5-7------------------------------------------------------|
D|-0-5-5-----0-7-7----------------------------------------------------------|
   .         .

e|--------------------------------------------------------------------------|
b|------------------------5--5------------------3------------------3-3------|
g|------------------------8--8---------------5--5--5---------------5-5------|
d|--3--2--1--0--------------------------------------------------------------|
a|--3--2--1--0-0-0-0-0---------10--10--10--------------10-10-10-------------|
D|--3--2--1--0-0-0-0-0---------10--10--10--------------10-10-10-------------|

e|--------------------------------------------------------------------------|
b|------------------------5--5------11-------11------11------11-------------|
g|------------------------8--8------10-------10------10------10-------------|
d|--3--2--1--0--------------------------------------------------------------|
a|--3--2--1--0-0-0-0-0---------8-8-----8-8------8-8------8-8----------------|
D|--3--2--1--0-0-0-0-0---------8-8-----8-8------8-8------8-8----------------| x2

e|--------------------------------------------------------------------------|
b|-18-17-15-17-18-17-15-17--16-15-13-15-16-15-13-15-------------------------|
g|--------------------------------------------------------------------------|
d|--------------------------------------------------------------------------|
a|--------------------------------------------------------------------------|
D|--------------------------------------------------------------------------|

e|-------------------------------18-17-15-17-18-17-15-17--------------------|
b|-18-17-15-17-18-17-15-17--------------------------------------------------|
g|--------------------------------------------------------------------------|
d|--------------------------------------------------------------------------|
a|--------------------------------------------------------------------------|
D|--------------------------------------------------------------------------|





Comments


Popular Inme tabs & chords
Mosaic Live Bass Tabs
Neptune Bass Tabs
7 Weeks Tabs
Ice Warm Tabs
May Tabs
Mosaic Intro Tabs
Ruins 4 Tabs
So You Know 1 Tabs
Soldier Tabs
Trenches 2 Tabs


Song lyrics



↑ Back to top | Tablatures and chords are parodies/interpretations of the original songs. You may use it for private study, scholarship, research or language learning purposes only
© 2014 AZChords.com Contact us | Privacy policy | DMCA | Add/correct tabs | Request tabs | Top 50 tabs