>
 >
In Loving Memory 1

In Loving Memory 1 Guitar Tabs

Inme - In Loving Memory 1 chords, tabs, tablatures, lyrics

Guitar lessons | Add/correct | Request | Top 50 tabs Artists:  A B C D E F G H I J K L M N O P Q R S T U V W X Y Z 0-9

In Loving Memory 1 Guitar Tabs – Inme

CD, Sheet music, Poster

Do you like In Loving Memory 1? Share with your friends now
TabsTabs v2
Genre:  Progressive Rock
Tuning: Drop D

this is the text version of my guitar pro tab.
watch out for the triplets in the verse and the repeat bars at each section.
in the "bridge", after the solo, the "17/(22)" is dependent on how many frets you have.
all and any muted notes (x) ive written are optional.
i just think that this song should be played with plenty of attack.
but feel free to leave rests instead (you wuss).


enjoi.





                                                       |--3--|            
     E  S S   S   E  S E  S  S  S  E  S    E  S E  E  E  S  S  S E  S S  S  
E||-------------------------12p-9-------|----------------------------------|
B||-------------------------------10----|-------7--5-----------------------|
G||-----x-9h-11s-14--x----x-----------x-|-------------7--6h-7p-6-----------|
D||--9-----------------7----------------|--5--x------------------7--4------|
A||--9-----------------7----------------|--5--------------------------5p-4-|
D||--9-----------------7----------------|--5-------------------------------|


                PH                    PH                                       
                                                                     |3|  3    
  E  S S   S    E    S  E  S S   S    E    S    S S S S E  S S E  E  S E  E.   
---------------------------------------------|--------------------------------|
---------------------------------------------|--------------------------------|
-----x-9h-11-<>11br--9-----x-9h-11-<>11br--9-|----2-----2----2----2-------2---|
--9--------------------10--------------------|-------------0-----------0------|
--9--------------------10--------------------|------4-4--------4-----4--------|
--9--------------------10--------------------|--------------------------------|


                                                NH   NH                      
                                                           |--3--|           
   E  S S   S   E  S E  S  S  S  E  S    E  S   E    E  E  S  S  S E  S S S  
--------------------------12p-9-------|-------<>7---------------------------|
--------------------------------10----|------------<>7----------------------|
------x-9h-11s-14--x----x-----------x-|-----------------9--7h-9p-7----6-----|
--/9-----------------7----------------|--5--x----------------------9----7---|
--/9-----------------7----------------|--5--------------------------------9-|
--/9-----------------7----------------|--5----------------------------------|


                PH                    PH                                       
                                                                     |3|  3    
  E  S S   S    E    S  E  S S   S    E    S    S S S S E  S S E  E  S E  E.   
---------------------------------------------|--------------------------------|
---------------------------------------------|--------------------------------|
-----x-9h-11-<>11br--9-----x-9h-11-<>11br--9-|----2-----2----2----2-------2---|
--9--------------------10--------------------|-------------0-----------0------|
--9--------------------10--------------------|------4-4--------4-----4--------|
--9--------------------10--------------------|--------------------------------|


                                           |3|  3   |3|  3      
    E  E  E  E  E  E  E  E     E  E  E  E  S E  E.  S E  E.   3x
|---------------------------|---------------------------------||
|---------------------------|---------------------------------||
|*--------2--------2--------|--------2----------2--------2---*||
|*-----0--------0--------0--|-----0-----0----2--------4------*||
|---4--------4--------4-----|--4-----------0--------0---------||
|---------------------------|---------------------------------||


                    |3|  3                        |3|  3    
  E  E  E  E  E  E  S E  E.     E  E  E  E  E  E  S E  E.   
-----------------------------|-----------------------------|
-----------------------------|-----------------------------|
-----------------------------|-----------------------------|
--------0--------0-------0---|--------0--------0-------0---|
-----7--------7-------9------|-----7--------7-------9------|
--9--------9--------9--------|--8--------8--------8--------|


                    |3|  3                        |3|  3    
  E  E  E  E  E  E  S E  E.     E  E  E  E  E  E  S E  E.   
-----------------------------|-----------------------------|
-----------------------------|-----------------------------|
-----------------------------|-----------------------------|
--------0--------0-------0---|--------0--------0-------0---|
-----7--------7-------9------|-----4--------4-------5------|
--7--------7--------7--------|--5--------5--------5--------|


  E  S E  S E  S S E  Q       Q.     S S S  S S S  S S E   
---------------------------|------------------------------|
---------------------------|------------------------------|
---------------------------|------------------------------|
--5--5-5----4--x-5----2----|--L------0-0-2p-0-0-2p-0-0-2--|
--5--5-5----5--x-5----2----|--L------0-0-2p-0-0-2p-0-0-2--|
--5--5-5----4--x-5----2----|--L------0-0-2p-0-0-2p-0-0-2--|


     E   S  S  S  S  E.   S  E   E   S  S    E  S S  S  S E.  S E  E  S S  
|-----------------------------------------|--7--7-7-------7---7-7--7--7-7-|
|---10--10-10--x--x-10---10-10--10--10-10-|--7--7-7--x--x-7---7-7--7--7-7-|
|*--11--11-11--x--x-11---11-11--11--11-11-|--7--7-7--x--x-7---7-7--7--7-7-|
|*---9---9--9--x--x--9----9--9---9---9--9-|--5--5-5--x--x-5---5-5--5--5-5-|
|----9---9--9--x--x--9----9--9---9---9--9-|--5--5-5--x--x-5---5-5--5--5-5-|
|----9---9--9--x--x--9----9--9---9---9--9-|--5--5-5--x--x-5---5-5--5--5-5-|


                                                                |--3--|       
   E   S  S  S  S  E.   S  E   E   S  S    E  S S S S Q      E  S  S  S E     
----------------------------------------|-----------------------------------||
--10--10-10--x--x-10---10-10--10--10-10-|--2--2-2-x-x-----------------------||
---9---9--9--x--x--9----9--9---9---9--9-|--2--2-2-x-x-------------------2--*||
---7---7--7--x--x--7----7--7---7---7--7-|--2--2-2-x-x-4br----2--0h-2p-0----*||
---7---7--7--x--x--7----7--7---7---7--7-|--4--4-4-x-x-----------------------||
---7---7--7--x--x--7----7--7---7---7--7-|-----------------------------------||


   E  E  S  S  S S  S S  S S  S S  E     E  E  S  S  S S  S S  S S  S S  E   
---2----------------------------------|-------------------------------------|
---3-----0h-3p-0-2p-0-----------------|-------------------------------5p-0--|
*--4------------------2p-0------------|--------0h-4p-0-2p-0------2p-0-------|
*--4-----------------------4p-0-------|--5------------------4p-0------------|
---2----------------------------4p-2--|--5----------------------------------|
--------------------------------------|--5----------------------------------|


  E  E  S  S  S S  S S  S S  S S  E     E  E  S  S  S S  S S  E   Q         
-------------------------------------|----------------------------9-------||
--------0h-3p-0-2p-0-----------------|--------0h-3p-0-2p-0-------12b~-----||
--2----------------------------------|--2--------------------------------*||
--2------------------2p-0------------|--2------------------2p-0----------*||
--0-----------------------4p-0-2p-0--|--0---------------------------------||
-------------------------------------|------------------------------------||


                                                NH   NH                      
                                                           |--3--|           
   E  S S   S   E  S E  S  S  S  E  S    E  S   E    E  E  S  S  S E  S S S  
--------------------------12p-9-------|-------<>7---------------------------|
--------------------------------10----|------------<>7----------------------|
------x-9h-11s-14--x----x-----------x-|-----------------9--7h-9p-7----6-----|
--/9-----------------7----------------|--5--x----------------------9----7---|
--/9-----------------7----------------|--5--------------------------------9-|
--/9-----------------7----------------|--5----------------------------------|


                                           |3|  3   |3|  3      
    E  E  E  E  E  E  E  E     E  E  E  E  S E  E.  S E  E.   3x
|---------------------------|---------------------------------||
|---------------------------|---------------------------------||
|*--------2--------2--------|--------2----------2--------2---*||
|*-----0--------0--------0--|-----0-----0----2--------4------*||
|---4--------4--------4-----|--4-----------0--------0---------||
|---------------------------|---------------------------------||


                    |3|  3                        |3|  3    
  E  E  E  E  E  E  S E  E.     E  E  E  E  E  E  S E  E.   
-----------------------------|-----------------------------|
-----------------------------|-----------------------------|
-----------------------------|-----------------------------|
--------0--------0-------0---|--------0--------0-------0---|
-----7--------7-------9------|-----7--------7-------9------|
--9--------9--------9--------|--8--------8--------8--------|


                    |3|  3                        |3|  3    
  E  E  E  E  E  E  S E  E.     E  E  E  E  E  E  S E  E.   
-----------------------------|-----------------------------|
-----------------------------|-----------------------------|
-----------------------------|-----------------------------|
--------0--------0-------0---|--------0--------0-------0---|
-----7--------7-------9------|-----4--------4-------5------|
--7--------7--------7--------|--5--------5--------5--------|


  E  S E  S E  S S E  Q       Q.     S S S  S S S  S S E   
---------------------------|------------------------------|
---------------------------|------------------------------|
---------------------------|------------------------------|
--5--5-5----4--x-5----2----|--L------0-0-2p-0-0-2p-0-0-2--|
--5--5-5----5--x-5----2----|--L------0-0-2p-0-0-2p-0-0-2--|
--5--5-5----4--x-5----2----|--L------0-0-2p-0-0-2p-0-0-2--|


     E   S  S  S  S  E.   S  E   E   S  S    E  S S  S  S E.  S E  E  S S  
|-----------------------------------------|--7--7-7-------7---7-7--7--7-7-|
|---10--10-10--x--x-10---10-10--10--10-10-|--7--7-7--x--x-7---7-7--7--7-7-|
|*--11--11-11--x--x-11---11-11--11--11-11-|--7--7-7--x--x-7---7-7--7--7-7-|
|*---9---9--9--x--x--9----9--9---9---9--9-|--5--5-5--x--x-5---5-5--5--5-5-|
|----9---9--9--x--x--9----9--9---9---9--9-|--5--5-5--x--x-5---5-5--5--5-5-|
|----9---9--9--x--x--9----9--9---9---9--9-|--5--5-5--x--x-5---5-5--5--5-5-|


                                                                 |--3--|       
    E   S  S  S  S  E.   S  E   E   S  S    E  S S S S Q      E  S  S  S E     
-----------------------------------------|-----------------------------------||
--/10--10-10--x--x-10---10-10--10--10-10-|--2--2-2-x-x-----------------------||
---/9---9--9--x--x--9----9--9---9---9--9-|--2--2-2-x-x-------------------2--*||
---/7---7--7--x--x--7----7--7---7---7--7-|--2--2-2-x-x-4br----2--0h-2p-0----*||
---/7---7--7--x--x--7----7--7---7---7--7-|--4--4-4-x-x-----------------------||
---/7---7--7--x--x--7----7--7---7---7--7-|-----------------------------------||


   E  E  S  S  S S  S S  S S  S S  E     E  E  S  S  S S  S S  S S  S S  E   
---2----------------------------------|-------------------------------------|
---3-----0h-3p-0-2p-0-----------------|-------------------------------5p-0--|
*--4------------------2p-0------------|--------0h-4p-0-2p-0------2p-0-------|
*--4-----------------------4p-0-------|--5------------------4p-0------------|
---2----------------------------4p-2--|--5----------------------------------|
--------------------------------------|--5----------------------------------|


  E  E  S  S  S S  S S  S S  S S  E     E  E  S  S  S S  S S  E   Q         
-------------------------------------|----------------------------9-------||
--------0h-3p-0-2p-0-----------------|--------0h-3p-0-2p-0-------12b~-----||
--2----------------------------------|--2--------------------------------*||
--2------------------2p-0------------|--2------------------2p-0----------*||
--0-----------------------4p-0-2p-0--|--0---------------------------------||
-------------------------------------|------------------------------------||


   E  S S S  S S E  S E  E  E     E  S  E  E.  E  S  S  S  S  S  S   
-------------------------------|-----------9------7-12p-7-12p-7s-5p-|
----------3p-2---2-------------|-------10---------------------------|
*--2----4------3----4----------|-----x------------------------------|
*--2--x---------------0--4--2--|--5------------7--------------------|
---0---------------------------|--5------------7--------------------|
-------------------------------|--5------------7--------------------|


          |---3---| |---3---| |---3---| |---3---| |---3---|  
  Q    E  S   S   S S   S   S S   S   S S   S   S S   S   S  
--0---------------------------------------------------------|
------------------------------------------------------------|
------------------------------------------------------------|
-------9----------------------------------------------------|
-------9--0h-16h-17-0h-16h-17-0h-17h-19-0h-17h-19-0h-17h-19-|
-------9----------------------------------------------------|


  E  S  E   E  S E  S S  S S S S  
-------12--14---------7----------|
--------------------x---10-7-----|
-----x---------x-------------9-9-|
--5--------------7---------------|
--5--------------7---------------|
--5--------------7---------------|


          |--3--| |--3--| |--3--| |--3--| |--3--|                              
  Q    E  S  S  S S  S  S S  S  S S  S  S S  S  S    E  S E  S E  S S E  Q     
------------------------------------------0h-7h-9-|---------------------------|
----------------------------------0h-7h-8---------|---------------------------|
--7-----------------------0h-7h-9-----------------|---------------------------|
-------9----------0h-7h-9-------------------------|--5--5-5----4--x-5----2----|
-------9--0h-7h-9---------------------------------|--5--5-5----5--x-5----2----|
-------9------------------------------------------|--5--5-5----4--x-5----2----|


  H        S S S  E  S  E     E  S E  S E  S S E  Q     
-----------------21--x-17--|---------------------------|
-------------x-x-----x(22)-|---------------------------|
-----------x-x-x-----------|---------------------------|
--L--------x---------------|--5--5-5----4--x-5----2----|
--L------------------------|--5--5-5----5--x-5----2----|
--L------------------------|--5--5-5----4--x-5----2----|


  H        S S S  E  S  E     E  S E  S E  S S E  Q     
-----------------21--x-17--|---------------------------|
-------------x-x-----x(22)-|---------------------------|
-----------x-x-x-----------|---------------------------|
--L--------x---------------|--5--5-5----4--x-5----2----|
--L------------------------|--5--5-5----5--x-5----2----|
--L------------------------|--5--5-5----4--x-5----2----|


  H        S S S  E  S  E     E  S E  S E  S S E  Q     
-----------------21--x-17--|---------------------------|
-------------x-x-----x(22)-|---------------------------|
-----------x-x-x-----------|---------------------------|
--L--------x---------------|--5--5-5----4--x-5----7----|
--L------------------------|--5--5-5----5--x-5----7----|
--L------------------------|--5--5-5----4--x-5----7----|


  S S S S S S S S S S S S  S  S  S  S    
---------------------------------------||
--------------------------10-10-10-10--||
------------------9-9-9-9--9--9--9--9-*||
----------7-7-7-7-7-7-7-7--7--7--7--7-*||
--7-7-7-7-7-7-7-7-7-7-7-7--7--7--7--7--||
--7-7-7-7-7-7-7-7-7-7-7-7--7--7--7--7--||


    E   S  S  S  S  E.   S  E   E   S  S    E  S S  S  S E.  S E  E  S S  
-----------------------------------------|--7--7-7-------7---7-7--7--7-7-|
---10--10-10--x--x-10---10-10--10--10-10-|--7--7-7--x--x-7---7-7--7--7-7-|
*--11--11-11--x--x-11---11-11--11--11-11-|--7--7-7--x--x-7---7-7--7--7-7-|
*---9---9--9--x--x--9----9--9---9---9--9-|--5--5-5--x--x-5---5-5--5--5-5-|
----9---9--9--x--x--9----9--9---9---9--9-|--5--5-5--x--x-5---5-5--5--5-5-|
----9---9--9--x--x--9----9--9---9---9--9-|--5--5-5--x--x-5---5-5--5--5-5-|


                                                                 |--3--|       
    E   S  S  S  S  E.   S  E   E   S  S    E  S S S S Q      E  S  S  S E     
-----------------------------------------|-----------------------------------||
--/10--10-10--x--x-10---10-10--10--10-10-|--2--2-2-x-x-----------------------||
---/9---9--9--x--x--9----9--9---9---9--9-|--2--2-2-x-x-------------------2--*||
---/7---7--7--x--x--7----7--7---7---7--7-|--2--2-2-x-x-4br----2--0h-2p-0----*||
---/7---7--7--x--x--7----7--7---7---7--7-|--4--4-4-x-x-----------------------||
---/7---7--7--x--x--7----7--7---7---7--7-|-----------------------------------||


   E  E  S S S S S S S S S S E     E  E  S S S S S S S S S S E   
---2----------------------------|-------------------------------|
---3-----0-3-0-2-0--------------|--------------------------5-0--|
*--4---------------2-0----------|--------0-4-0-2-0-----2-0------|
*--4-------------------4-0------|--5---------------4-0----------|
---2-----------------------4-2--|--5----------------------------|
--------------------------------|--5----------------------------|


  E  E  S S S S S S S S S S E     E  E  S S S S S S E   Q         
-------------------------------|------------------------9-------||
--------0-3-0-2-0--------------|--------0-3-0-2-0------12b~-----||
--2----------------------------|--2----------------------------*||
--2---------------2-0----------|--2---------------2-0----------*||
--0-------------------4-0-2-0--|--0-----------------------------||
-------------------------------|--------------------------------||


                                                       |--3--|           
   E  S S   S   E  S E  S  S  S  E  S    E  S E  E  E  S  S  S E  S S S  
--------------------------12p-9-------|---------------------------------|
--------------------------------10----|-------7--5----------------------|
------x-9h-11s-14--x----x-----------x-|-------------7--6h-7p-6----------|
--/9-----------------7----------------|--5--x------------------7--4-----|
--/9-----------------7----------------|--5--------------------------5-4-|
--/9-----------------7----------------|--5------------------------------|


                PH                    PH                                       
                                                                     |3|  3    
  E  S S   S    E    S  E  S S   S    E    S    S S S S E  S S E  E  S E  E.   
---------------------------------------------|--------------------------------|
---------------------------------------------|--------------------------------|
-----x-9h-11-<>11br--9-----x-9h-11-<>11br--9-|----2-----2----2----2-------2---|
--9--------------------10--------------------|-------------0-----------0------|
--9--------------------10--------------------|------4-4--------4-----4--------|
--9--------------------10--------------------|--------------------------------|


                                                NH   NH                      
                                                           |--3--|           
   E  S S   S   E  S E  S  S  S  E  S    E  S   E    E  E  S  S  S E  S S S  
--------------------------12p-9-------|-------<>7---------------------------|
--------------------------------10----|------------<>7----------------------|
------x-9h-11s-14--x----x-----------x-|-----------------9--7h-9p-7----6-----|
--/9-----------------7----------------|--5--x----------------------9----7---|
--/9-----------------7----------------|--5--------------------------------9-|
--/9-----------------7----------------|--5----------------------------------|


                PH                    PH                                       
                                                                     |3|  3    
  E  S S   S    E    S  E  S S   S    E    S    S S S S E  S S E  E  S E  E.   
---------------------------------------------|--------------------------------|
---------------------------------------------|--------------------------------|
-----x-9h-11-<>11br--9-----x-9h-11-<>11br--9-|--x-2-----2----2----2-------2---|
--9--------------------10--------------------|-------------0-----------0------|
--9--------------------10--------------------|------4-4--------4-----4--------|
--9--------------------10--------------------|--------------------------------|


  PM PM PM PM PM PM             PM PM PM PM PM PM           
  S  E  E  S  S  S  H           S  E  E  S  S  S  H         
-----------------------------|-----------------------------|
-----------------------------|-----------------------------|
-----------------------------|-----------------------------|
--------------------0--------|--------------------0--------|
--5--5--5--5--5--5--4--------|--5--5--5--5--5--5--4--------|
--5--5--5--5--5--5--5--------|--5--5--5--5--5--5--5--------|


  PM PM PM PM PM PM             PM PM PM PM PM PM           
  S  E  E  S  S  S  H           S  E  E  S  S  S  H         
-----------------------------|-----------------------------|
-----------------------------|-----------------------------|
-----------------------------|-----------------------------|
--------------------0--------|--------------------0--------|
--7--7--7--7--7--7--4--------|--7--7--7--7--7--7--4--------|
--7--7--7--7--7--7--7--------|--7--7--7--7--7--7--7--------|


  PM PM PM PM PM PM             PM PM PM PM PM PM           
  S  E  E  S  S  S  H           S  E  E  S  S  S  H         
-----------------------------|-----------------------------|
-----------------------------|-----------------------------|
-----------------------------|-----------------------------|
--------------------0--------|--------------------0--------|
--5--5--5--5--5--5--4--------|--5--5--5--5--5--5--4--------|
--5--5--5--5--5--5--5--------|--5--5--5--5--5--5--5--------|


  PM PM PM PM PM PM     PM PM     PM PM                       
  S  E  E  S  S  S   E  S  S   E  S  S     W                  
----------------------------------------|-------------------||
----------------------------------------|-------------------||
----------------------------------------|-------------------||
----------------------------------------|--0----------------||
--0--0--0--0--0--0--/5------------------|--0----------------||
--0--0--0--0--0--0------0--0--/7--0--0--|--0----------------||




Duration Legend
---------------
W - whole
H - half
Q - quarter
E - 8th
S - 16th
T - 32nd
X - 64th
. - note dotted
|-n-|  - n-tuplets


Tablature Legend
----------------
L - tied note
x - dead note
g - grace note
> - accentuded note
NH - natural harmonic
AH - artificial harmonic
TH - tapped harmonic
SH - semi harmonic
PH - pitch harmonic
h - hammer on
p - pull off
b - bend
br - bendRelease
pb - preBend
pbr - preBendRelease
brb - bendReleaseBend
\n/ - tremolo bar dip
\n - tremolo bar dive
-/n - tremolo bar Release up
/n\ - tremolo bar inverted dip
/n - tremolo bar return
-\n - tremolo bar Release down
S - shift slide
s - legato slide
/ -  slide into from below or out of upwards
\ -  slide into from above or out of downwards
~ - vibrato
W - wide vibrato
tr - trill
TP - tremolo picking
T - tapping
S - slap
P - pop
< - fade in
^ - brush up
v - brush down





Comments


Popular Inme tabs & chords
Daydream Anonymous Bass Tabs
Just A Glimpse Bass Tabs
C-L-F Tabs
Crushed Like Fruit 1 Tabs
Fire Fly Tabs
Ice Warm 2 Tabs
Neptune Tabs
Otherside Tabs
Trenches Intro 1 Tabs
Sorry Lads Ukulele


Song lyrics



↑ Back to top | Tablatures and chords are parodies/interpretations of the original songs. You may use it for private study, scholarship, research or language learning purposes only
© 2014 AZChords.com Contact us | Privacy policy | DMCA | Add/correct tabs | Request tabs | Top 50 tabs