>
 >
Ice Warm

Ice Warm Bass Tabs

Inme - Ice Warm chords, tabs, tablatures, lyrics

Guitar lessons | Add/correct | Request | Top 50 tabs Artists:  A B C D E F G H I J K L M N O P Q R S T U V W X Y Z 0-9

Ice Warm Bass Tabs – Inme

CD, Sheet music, Poster

Do you like Ice Warm? Share with your friends now
Bass TabsBass Tabs v2TabsTabs v2Tabs v3


This is a great song, but is not available on single. The albem 
'Overgrown Eden' comes out in the UK in september. You can download
the song from the internet.

I am pretty much sure this is right, the choras needs some work
though.

Key
\ = Slide 

G--------------------------------------------------    Intro
D----------------6--4--------------9-11--11-13-----
A--6-\4-\1-------------5-4-56-7-7------------------
E-----------3-3------------------------------------

G-----------------------------------------
D-------6--4--------------9-9-9-9-\5--h6--
A-------------5-4-56-7-7------------------
E--3-3------------------------------------            



G-----------------------------------------     Verse X2
D-------6---------------------------------
A-------------6-6--------------6-6----6---
E--3-3-----------------3-3----------------



G-------------------------------      Pre-Choras X2
D-------------------------------
A--------6------------6---------
E--3-----------3----------------


G-------------------------------------------    Choras X4
D------------00000000-----------------------
A--11111111------------00000000-------------
E--------------------------------33333333---


G---------------------------------------     Fill
D-------6--4--------------9-11--11-13---
A-------------5-4-56-7-7----------------
E--3-3----------------------------------



Verse 

Pre-Choras

Choras


G---------------------------------------    Fill 2 
D-------6--4--------------9-11--11-13---
A-------------5-4-56-7-7----------------
E--3-3----------------------------------


G-----------------------------------------
D-------6--4--------------9-9-9-9-\5--h6--
A-------------5-4-56-7-7------------------
E--3-3------------------------------------



G----------------------------------------    Fill 3 X2
D----------------------------------------
A-------------------11111111111111-------
E---33333333333333-----------------------


Choras X2





Comments


Popular Inme tabs & chords
Her Mask Bass Tabs
Soldier Bass Tabs
Daydream Anonymous Chords
A Toast To Broken Glass Tabs
Gently Hurting Tabs
Happy To Disappoint You 2 Tabs
May (As Well Kiss Me) Tabs
Soldier Tabs
Spur Of Moment Tabs
Turbulence Ukulele


Song lyrics



↑ Back to top | Tablatures and chords are parodies/interpretations of the original songs. You may use it for private study, scholarship, research or language learning purposes only
© 2014 AZChords.com Contact us | Privacy policy | DMCA | Add/correct tabs | Request tabs | Top 50 tabs