» » »

Gently Hurting Tabs (ver.2)

Artists:  A B C D E F G H I J K L M N O P Q R S T U V W X Y Z # 

Gently Hurting Tabs (ver.2)

Inme
Rating:
0/5 (0 votes)

Hard to play? Try these video lessons and learn fast.
                Gently Hurting(Intro)- InMe
Drop D
Bend up ^


------------------------------------5^----------------------------------------------
-------------5^------------------------------------------------5^-------------3------
------3-0-3-----3-0-3-------3-0-3-------3-0-3----------3-0-3------3-0-3---------0----
-0-0-------------------0-0-----------------------0-0---------------------0-0-------0-


-------------------
-------------------
-------------------
--------3----------
----------1--------
--1-1-------1------


--0-0-0-0---4-4-4-4---8-8-8-8------------------------0-0-0-0---4-4-4-4---8-8-8-8
--0-0-0-0---4-4-4-4---8-8-8-8--------4-----3---------0-0-0-0---4-4-4-4---8-8-8-8
--0-0-0-0---4-4-4-4---8-8-8-8-----1-----1-----1------0-0-0-0---4-4-4-4---8-8-8-8

---------
---------
--------- 
-1-1-1-1-
-1-1-1-1-
-1-1-1-1-

--0-0-0-0---4-4-4-4---8-8-8-8------------------------0-0-0-0---4-4-4-4--------------
--0-0-0-0---4-4-4-4---8-8-8-8--------4-----3---------0-0-0-0---4-4-4-4--------------
--0-0-0-0---4-4-4-4---8-8-8-8-----1-----1-----1------0-0-0-0---4-4-4-4--------------
            
Hard to play? Try these video lessons and learn fast. | Correct




comments powered by Disqus
↑ Back to top | Tablatures and chords are parodies/interpretations of the original songs. You may use it for private study, scholarship, research or language learning purposes only