» » »

Inme, Daydream Anonymous Tabs (ver.1)

Artists:  A B C D E F G H I J K L M N O P Q R S T U V W X Y Z # 

Daydream Anonymous Tabs (ver.1)

Inme Tabs
Rating:
0/5 (0 votes)
Daydream Anonymous lessons Tabs too difficult? Try these video lessons and learn fast
                Awesome Band, Awesome Song

Randomly figured this one out. Most of it right, not 100% done, the interlude part is 
but hey here it is.........


Intro
e --------------------------------------------------------------------------|
b --------------------------------------------------------------------------|
g ------2-----------2-------------------------------------------------------|
d --------4---4--------4---4-------7---7-----------7---10-10----------------|
a ----2-----------2--------------5-------5-------5--------------------------|
D --2-----------2--------------5---------------5----------------------------|

Verse
1) The snow across the old white fields........
2) We've been drinking it dry for quite a while.....

e --------------------------------------------------------------------------|
b --------------------------------------------------------------------------|
g ------2-----------2----------------------------------------------9--------|
d --------4---4--------4---4-------7---7-----------7---7--------------------|
a ----2-----------2--------------5-------5-------5-------5-------9---9-9----|
D --2-----------2--------------5---------------5---------------9------9-----|


e --------------------------------------------------------------------------|
b --------------------------------------------------------------------------|
g ------9-------------7------------6----------------------------------------|
d --------------------------------------------------------------------------|
a ----9---9-9-------7---7-7------7---7-7------------------------------------|
D --9------9------7------7-----7------7-------------------------------------|


Chorus chords (x 2)
We daydream alone..........

e --------------------------------------------------------------------------|
b --------------------------------------------------------------------------|
g --------------------------------------------------------------------------|
d --4------------5-------------7------------11------------------------------|
a --2------------5-------------5------------9-------------------------------|
D ---------------5----------------------------------------------------------|


Thats all died.........

e ----------|
b ----------|
g ----------|
d ---7------|   (constant strumming)
a ---5------|
D ----------|


Interlude
does she forgive you.........

e -----------------------------------------------------------------|
b -----------------------------------------------------------------|
g -----------------------------------------------------------------|
d -----------------------------------------------------------------|
a -----------------------------------------------------------------|
D -2-2-2-2-2-2-2-2-2-2-2-2-2-2-2-2-1-1-1-1-1-1-1-1-1-1-1-1-1-1-1-1-|

*im not sure after this point but i think that may just be*

d --7------|   (constant strumming)
a --5------|


InMe we trust
            
Submit corrections

comments powered by Disqus
↑ Back to top | Inme Tabs for Daydream Anonymous. Lyrics for acoustic guitar and electric guitar. Tablatures and chords are parodies/interpretations of the original songs. You may use it for private study, scholarship, research or language learning purposes only