>
 >
Crushed Like Fruit

Crushed Like Fruit Bass Tabs

Inme - Crushed Like Fruit chords, tabs, tablatures, lyrics

Guitar lessons | Add/correct | Request | Top 50 tabs Artists:  A B C D E F G H I J K L M N O P Q R S T U V W X Y Z 0-9

Crushed Like Fruit Bass Tabs – Inme

CD, Sheet music, Poster

Do you like Crushed Like Fruit? Share with your friends now
Bass TabsTabsTabs v2Tabs v3
 Intro 
G|------------------------------------------------------|
D|------------------------3/5555333---8-----------------|
A|----------------------------------6---6-0-------------|
D|--------5-7-5-7-5-7-5-7-------------------------------|

G|----------------------------------------------------------------|
D|------------------------3/5555333-------------------------------|
A|------------------------------------------------------0111/3333-|
D|----5555-5555-5555-5555-----------1111-1111-1111-1111-----------|

Verse
G|-----------------------------------------------------------------|
D|-0000-8-0000-7-0000-8-0000-7-------------------------------------|
A|-----------------------------1-0-3-5-0000-7-0000-8-0000-7-0000-8-|
D|-----------------------------------------------------------------|

PreChorus
G|----------------------------------|
D|-----------------------3/5-5-3----|
A|----------------------------------|
D|---7-------4-------3--------------|

G|-----------------------------------------|
D|-----------------------------------------|
A|-----------------------------------------|
D|---7-7777-7777-4-4444-4444-3-3333-553311-|

G|-------------|
D|-------------|
A|-------------|
D|-4xx5xx6xx78-|

Chorus 
G|-------------------------------------------------|
D|-------------------------------------------------|
A|-------------------------------------------------|
D|-9-9999-9999-9999-9-11-7-5-5555-7777-5555-5-7-10-|

G|-------------------------------------------------|
D|-------------------------------------------------|
A|-------------------------------------------------|
D|-9-9999-9999-9999-9-11-7-5-5555-5554xx5xx6xx7-10-|

G|----------------------------------|
D|----------------------------------|
A|----0111/3333---------------------|
D|--------------55555555-555-555-55-|





Comments


Popular Inme tabs & chords
Her Mask Bass Tabs
Mosaic 2 Bass Tabs
Underdose Bass Tabs
Underdose 2 Bass Tabs
2nd Jonquil Chords
Lava Twilight Tabs
Lava Twilight 2 Tabs
Mosaic Tabs
Wounds 1 Tabs
Chamber Ukulele


Song lyrics



↑ Back to top | Tablatures and chords are parodies/interpretations of the original songs. You may use it for private study, scholarship, research or language learning purposes only
© 2014 AZChords.com Contact us | Privacy policy | DMCA | Add/correct tabs | Request tabs | Top 50 tabs