>
 >
Cracking The Whip

Cracking The Whip Guitar Tabs

Inme - Cracking The Whip chords, tabs, tablatures, lyrics

Guitar lessons | Add/correct | Request | Top 50 tabs Artists:  A B C D E F G H I J K L M N O P Q R S T U V W X Y Z 0-9

Cracking The Whip Guitar Tabs – Inme

CD, Sheet music, Poster

Do you like Cracking The Whip? Share with your friends now
Tabs
Inme - Cracking the whip


First attempt

There have been a few people asking for this tab so ive had a go at it.
i tabbed it by ear, and by seeing Dave play it a couple of times live, 
so hopefully its fairly accurate. there are a couple of bit i had a 
little trouble with or haven't tried to tab, such as the end of the solo
- if you have managed it let me know!

the strumming patterns and palm muting are fairly self explanatory if you listen to the track

cheers!

Intro (mainly 2-handed tapping)

|--------------------------------------------------------------------------|
|5h12p8h12p7h12p5h12p4h12p5h12p7h12p8-13p10h13p8h13p7h13p5h13p7h13p8h13p10-|
|--------------------------------------------------------------------------|
|--------------------------------------------------------------------------|
|--------------------------------------------------------------------------|
|--------------------------------------------------------------------------|


|--------------------------------------------------------------------------|
|-h10p8h10p7h10p5h10--h10p5h10p7h10p8-5p4p0h5p4p0h5p4p0h5p4p07p4p0h7p4p0h8-|
|h7------------------h7----------------------------------------------------|
|--------------------------------------------------------------------------|
|--------------------------------------------------------------------------|
|--------------------------------------------------------------------------|


|--------------------------------------------------------------------------|
|5h12p8h12p7h12p5h12p4h12p5h12p7h12p8--13p10h13p8h13p7h13p5h13p7h13p8h13p10|
|--------------------------------------------------------------------------|
|--------------------------------------------------------------------------|
|--------------------------------------------------------------------------|
|--------------------------------------------------------------------------|


|------------------------------------0h4h5p0h4h5p0h4h5p0h4h5-0h7h8p0h7h8-11|
|-h10p8h10p7h10p5h10--h10p5h10p7h10p8--------------------------------------|
|7------------------h7-----------------------------------------------------|
|--------------------------------------------------------------------------|
|--------------------------------------------------------------------------|
|--------------------------------------------------------------------------|



|--------------------------------------------------------------------------|
|-------12p0h10p0h10p0h8p0h8p0h7p0h7p0h5p0h5p0h4p0h4p0h5p0h5p0h7p0h7p0h8---|
|--------------------------------------------------------------------------|
|--------------------------------------------------------------------------|
|--------------------------------------------------------------------------|
|--------------------------------------------------------------------------|


|--------------------------------------------------------------------------|
|------12p0h12p0h10p0h10p0h8p0h8p0h7p0h7p0h5p0h5p0h3p0h3p0h5p0h5p0h7p0h7---|
|--------------------------------------------------------------------------|
|--------------------------------------------------------------------------|
|--------------------------------------------------------------------------|
|--------------------------------------------------------------------------|


|--------------------------------------------------------------------------|
|-----12p3p0h3h10p3p0h3h8p3p0h3h7p3p0h3h5p3p0h7p3p0h3h8p3p0h3h10p3p0h3-----|
|--------------------------------------------------------------------------|
|--------------------------------------------------------------------------|
|--------------------------------------------------------------------------|
|--------------------------------------------------------------------------|



|----------------10--------------------------------------------------------|
|-----8p6h8p6-10----12-12-13-13-12-12-10-10-12-12--8p6h8p6-----------------|
|--------------------------------------------------------------------------|
|--------------------------------------------------------------------------|
|--------------------------------------------------------------------------|
|--------------------------------------------------------------------------|

Verse

|---12-12-12-12-12-12-12--12-12-12-12-12-12-12---15-15-15-15-15-15-15--17--|
|---12-12-12-12-12-12-12--12-12-12-12-12-12-12---15-15-15-15-15-15-15--15--|
|---8--8--8--8--8--8--8---8--8--8--8--8--8--8----12-12-12-12-12-12-12--12--|
|--------------------------------------------------------------------------|
|--------------------------------------------------------------------------|
|--------------------------------------------------------------------------|

|-17-17-17-19-19-19----|
|-15-15-15-15-15-15----|
|-12-12-12-12-12-12----|
|----------------------|
|----------------------|
|----------------------|

|-10-10-10-10-10-10-10---12-12-12-12-10-10-10- 8-8-8-8-8-8-8--8-8-8-8-8-8-8|
|-10-10-10-10-10-10-10---10-10-10-10-10-10-10--8-8-8-8-8-8-8--8-8-8-8-8-8-8|
|-7--7--7--7--7--7--7----7--7--7--7--7--7--7---5-5-5-5-5-5-5--5-5-5-5-5-5-5|
|--------------------------------------------------------------------------|
|--------------------------------------------------------------------------|
|--------------------------------------------------------------------------|



|---12-12-12-12-12-12-12--12-12-12-12-12-12-12---15-15-15-15-15-15-15--17--|
|---12-12-12-12-12-12-12--12-12-12-12-12-12-12---15-15-15-15-15-15-15--15--|
|---8--8--8--8--8--8--8---8--8--8--8--8--8--8----12-12-12-12-12-12-12--12--|
|--------------------------------------------------------------------------|
|--------------------------------------------------------------------------|
|--------------------------------------------------------------------------|


|-17-17-17-19-19-19--|
|-15-15-15-15-15-15--|
|-12-12-12-12-12-12--|
|--------------------|
|--------------------|
|--------------------|


|-10-10-10-10-10-10-10---12-12-12-12-10-10-10- 8-8-8-8-8-8-8--8-8-8-8-8-8-8|
|-10-10-10-10-10-10-10---10-10-10-10-10-10-10--8-8-8-8-8-8-8--8-8-8-8-8-8-8|
|-7--7--7--7--7--7--7----7--7--7--7--7--7--7---5-5-5-5-5-5-5--5-5-5-5-5-5-5|
|--------------------------------------------------------------------------|
|--------------------------------------------------------------------------|
|--------------------------------------------------------------------------|

|------------------|
|------------------|
|------------------|
|---/14-/14--------|
|---/14-/14--------|
|---/14-/14--------|

Bridge


|--------------------------------------------------------------------------|
|--------------------------------------------------------------------------|
|-----------------------------------------------------------------7*---5*--|
|--2-2-2-2-2-2-2-2-2-2-2-2-2-2-2-2----5-5-5-5-5-5-5-3-3-3-3-3--------------|
|--2-2-2-2-2-2-2-2-2-2-2-2-2-2-2-2----5-5-5-5-5-5-5-3-3-3-3-3--------------|
|--2-2-2-2-2-2-2-2-2-2-2-2-2-2-2-2----5-5-5-5-5-5-5-3-3-3-3-3--------------|


Chorus

|--------------------------------------------------------------------------|
|--------------------------------------------------------------------------|
|--------------------------------------------------14-14-14-14-14-14-14^16^|
|-10-10-10-10-10-10-10-10-10-10-10-10-10-10-10-10--12-12-12-12-12-12-12-12-|
|-10-10-10-10-10-10-10-10-10-10-10-10-10-10-10-10--12-12-12-12-12-12-12-12-|
|-10-10-10-10-10-10-10-10-10-10-10-10-10-10-10-10--12-12-12-12-12-12-12-12-|


--------------------|
--------------------|
14-14^16^14-14-14-14|
12-12-12-12-12-12-12|
12-12-12-12-12-12-12|
12-12-12-12-12-12-12|


|--------------------------------------------------------------------------|
|-------------------------------------------------------------------10/12--|
|--9-9-9-9-9-9-9-9-111111119-9-9-9-----------------------------------------|
|--7-7-7-7-7-7-7-7-9-9-9-9-7-7-7-7------5555-5--5555-5---4-4-4-4-4-4-------|
|--7-7-7-7-7-7-7-7-7-7-7-7-7-7-7-7------5555-5--5555-5---5-5-5-5-5-5-------|
|--7-7-7-7-7-7-7-7-7-7-7-7-7-7-7-7------5555-5--5555-5---4-4-4-4-4-4-------|




|--------------------------------------------------------------------------|
|--------------------------------------------------------------------------|
|--------------------------------------------------14-14-14-14-14-14-14^16^|
|-10-10-10-10-10-10-10-10-10-10-10-10-10-10-10-10--12-12-12-12-12-12-12-12-|
|-10-10-10-10-10-10-10-10-10-10-10-10-10-10-10-10--12-12-12-12-12-12-12-12-|
|-10-10-10-10-10-10-10-10-10-10-10-10-10-10-10-10--12-12-12-12-12-12-12-12-|

--------------------|
--------------------|
14-14^16^14-14-14-14|
12-12-12-12-12-12-12|
12-12-12-12-12-12-12|
12-12-12-12-12-12-12|





|--------------------------------------------------------------------------|
|--------------------------------------------------------------------------|
|--9-9-9-9-9-9-9-9-111111119-9-9-9-----------------------------------------|
|7-7-7-7-7-7-7-7-9-9-9-9-7-7-7-7--9999-9-9999-9--11111111-11--12121212-12--|
|7-7-7-7-7-7-7-7-7-7-7-7-7-7-7-7--9999-9-9999-9--11111111-11--12121212-12--|
|7-7-7-7-7-7-7-7-7-7-7-7-7-7-7-7--9999-9-9999-9--11111111-11--12121212-12--|




|--------------------------------------------------------------------------|
|5h12p8h12p7h12p5h12p4h12p5h12p7h12p8-13p10h13p8h13p7h13p5h13p7h13p8h13p10-|
|--------------------------------------------------------------------------|
|--------------------------------------------------------------------------|
|--------------------------------------------------------------------------|
|--------------------------------------------------------------------------|


|--------------------------------------------------------------------------|
|-h10p8h10p7h10p5h10--h10p5h10p7h10p8--5p4p0h5p4p0h5p4p0h5p4p07p4p0h7p4p0h8|
|7------------------h7-----------------------------------------------------|
|--------------------------------------------------------------------------|
|--------------------------------------------------------------------------|
|--------------------------------------------------------------------------|


Verse
|---12-12-12-12-12-12-12--12-12-12-12-12-12-12---15-15-15-15-15-15-15--17--|
|---12-12-12-12-12-12-12--12-12-12-12-12-12-12---15-15-15-15-15-15-15--15--|
|---8--8--8--8--8--8--8---8--8--8--8--8--8--8----12-12-12-12-12-12-12--12--|
|--------------------------------------------------------------------------|
|--------------------------------------------------------------------------|
|--------------------------------------------------------------------------|

|-17-17-17-19-19-19----|
|-15-15-15-15-15-15----|
|-12-12-12-12-12-12----|
|----------------------|
|----------------------|
|----------------------|

|-10-10-10-10-10-10-10---12-12-12-12-10-10-10- 8-8-8-8-8-8-8--8-8-8-8-8-8-8|
|-10-10-10-10-10-10-10---10-10-10-10-10-10-10--8-8-8-8-8-8-8--8-8-8-8-8-8-8|
|-7--7--7--7--7--7--7----7--7--7--7--7--7--7---5-5-5-5-5-5-5--5-5-5-5-5-5-5|
|--------------------------------------------------------------------------|
|--------------------------------------------------------------------------|
|--------------------------------------------------------------------------|



|---12-12-12-12-12-12-12--12-12-12-12-12-12-12---15-15-15-15-15-15-15--17--|
|---12-12-12-12-12-12-12--12-12-12-12-12-12-12---15-15-15-15-15-15-15--15--|
|---8--8--8--8--8--8--8---8--8--8--8--8--8--8----12-12-12-12-12-12-12--12--|
|--------------------------------------------------------------------------|
|--------------------------------------------------------------------------|
|--------------------------------------------------------------------------|


|-17-17-17-19-19-19--|
|-15-15-15-15-15-15--|
|-12-12-12-12-12-12--|
|--------------------|
|--------------------|
|--------------------|


|-10-10-10-10-10-10-10---12-12-12-12-10-10-10- 8-8-8-8-8-8-8--8-8-8-8-8-8-8|
|-10-10-10-10-10-10-10---10-10-10-10-10-10-10--8-8-8-8-8-8-8--8-8-8-8-8-8-8|
|-7--7--7--7--7--7--7----7--7--7--7--7--7--7---5-5-5-5-5-5-5--5-5-5-5-5-5-5|
|--------------------------------------------------------------------------|
|--------------------------------------------------------------------------|
|--------------------------------------------------------------------------|


|---12*--------|
|---12*--------|
|---12*--------|
|--------------|
|--------------|
|--------------|

Chorus

|--------------------------------------------------------------------------|
|--------------------------------------------------------------------------|
|--------------------------------------------------14-14-14-14-14-14-14^16^|
|-10-10-10-10-10-10-10-10-10-10-10-10-10-10-10-10--12-12-12-12-12-12-12-12-|
|-10-10-10-10-10-10-10-10-10-10-10-10-10-10-10-10--12-12-12-12-12-12-12-12-|
|-10-10-10-10-10-10-10-10-10-10-10-10-10-10-10-10--12-12-12-12-12-12-12-12-|


--------------------|
--------------------|
14-14^16^14-14-14-14|
12-12-12-12-12-12-12|
12-12-12-12-12-12-12|
12-12-12-12-12-12-12|


|--------------------------------------------------------------------------|
|-------------------------------------------------------------------10/12--|
|--9-9-9-9-9-9-9-9-111111119-9-9-9-----------------------------------------|
|--7-7-7-7-7-7-7-7-9-9-9-9-7-7-7-7------5555-5--5555-5---4-4-4-4-4-4-------|
|--7-7-7-7-7-7-7-7-7-7-7-7-7-7-7-7------5555-5--5555-5---5-5-5-5-5-5-------|
|--7-7-7-7-7-7-7-7-7-7-7-7-7-7-7-7------5555-5--5555-5---4-4-4-4-4-4-------|




|--------------------------------------------------------------------------|
|--------------------------------------------------------------------------|
|--------------------------------------------------14-14-14-14-14-14-14^16^|
|-10-10-10-10-10-10-10-10-10-10-10-10-10-10-10-10--12-12-12-12-12-12-12-12-|
|-10-10-10-10-10-10-10-10-10-10-10-10-10-10-10-10--12-12-12-12-12-12-12-12-|
|-10-10-10-10-10-10-10-10-10-10-10-10-10-10-10-10--12-12-12-12-12-12-12-12-|

--------------------|
--------------------|
14-14^16^14-14-14-14|
12-12-12-12-12-12-12|
12-12-12-12-12-12-12|
12-12-12-12-12-12-12|





|--------------------------------------------------------------------------|
|--------------------------------------------------------------------------|
|--9-9-9-9-9-9-9-9-111111119-9-9-9-----------------------------------------|
|7-7-7-7-7-7-7-7-9-9-9-9-7-7-7-7--9999-9-9999-9--11111111-11--12121212-12--|
|7-7-7-7-7-7-7-7-7-7-7-7-7-7-7-7--9999-9-9999-9--11111111-11--12121212-12--|
|7-7-7-7-7-7-7-7-7-7-7-7-7-7-7-7--9999-9-9999-9--11111111-11--12121212-12--|




|--------------------------------------------------------------------------|
|--------------------------------------------------------------------------|
|--------------------------------------------------------------------------|
|--2-2-2-2-2-2-2-2-2-2-2-2-2-2-2-2----5-5-5-5-5-5-5-5-3-3-3-3-3------------|
|--2-2-2-2-2-2-2-2-2-2-2-2-2-2-2-2----5-5-5-5-5-5-5-5-3-3-3-3-3-0h2-0h2-0h2|
|--2-2-2-2-2-2-2-2-2-2-2-2-2-2-2-2----5-5-5-5-5-5-5-5-3-3-3-3-3------------|



|--------------------------------------------------------------------------|
|--------------------------------------------------------------------------|
|--------------------------------------------------------------------------|
|--2-2-2-2-2-2-----2-2-2-2-------------5-5-5-5-5-5-5-3--3-3-3--------------|
|--2-2-2-2-2-2-5-2-2-2-2-2-2vvvvvp0----5-5-5-5-5-5-5-3--3-3-3--------------|
|--2-2-2-2-2-2-----2-2-2-2-------------5-5-5-5-5-5-5-3--3-3-3--|

solo

|---12h15p12\10-10h12p10\7-7h10p7\5-5h7p5\3-5p3p0h5p3p0h5p3p0h5p3p0-/10--7-|
|--------------------------------------------------------------------------|
|--------------------------------------------------------------------------|
|--------------------------------------------------------------------------|
|--------------------------------------------------------------------------|
|--------------------------------------------------------------------------|

10^12^10-7\5-/15---|
|------------------|
|------------------|
|------------------|
|------------------|
|------------------|



|--------------------------------------------------------------------------|
|----------------------------0------------------------------5*-------------|
|-11h12p11\7-7h9p7\4-*!*----------12p0-0-12p0-012p0-012p0-0-5*-------------|
|--------------------------------------------------------------------------|
|--------------------------------------------------------------------------|
|--------------------------------------------------------------------------|

*!* if anyone gets this bit please submit it! thanks

chorus

|--------------------------------------------------------------------------|
|--------------------------------------------------------------------------|
|--------------------------------------------------14-14-14-14-14-14-14^16^|
|-10-10-10-10-10-10-10-10-10-10-10-10-10-10-10-10--12-12-12-12-12-12-12-12-|
|-10-10-10-10-10-10-10-10-10-10-10-10-10-10-10-10--12-12-12-12-12-12-12-12-|
|-10-10-10-10-10-10-10-10-10-10-10-10-10-10-10-10--12-12-12-12-12-12-12-12-|


--------------------|
--------------------|
14-14^16^14-14-14-14|
12-12-12-12-12-12-12|
12-12-12-12-12-12-12|
12-12-12-12-12-12-12|


|--------------------------------------------------------------------------|
|-------------------------------------------------------------------10/12--|
|--9-9-9-9-9-9-9-9-111111119-9-9-9-----------------------------------------|
|--7-7-7-7-7-7-7-7-9-9-9-9-7-7-7-7------5555-5--5555-5---4-4-4-4-4-4-------|
|--7-7-7-7-7-7-7-7-7-7-7-7-7-7-7-7------5555-5--5555-5---5-5-5-5-5-5-------|
|--7-7-7-7-7-7-7-7-7-7-7-7-7-7-7-7------5555-5--5555-5---4-4-4-4-4-4-------|




|--------------------------------------------------------------------------|
|--------------------------------------------------------------------------|
|--------------------------------------------------14-14-14-14-14-14-14^16^|
|-10-10-10-10-10-10-10-10-10-10-10-10-10-10-10-10--12-12-12-12-12-12-12-12-|
|-10-10-10-10-10-10-10-10-10-10-10-10-10-10-10-10--12-12-12-12-12-12-12-12-|
|-10-10-10-10-10-10-10-10-10-10-10-10-10-10-10-10--12-12-12-12-12-12-12-12-|

--------------------|
--------------------|
14-14^16^14-14-14-14|
12-12-12-12-12-12-12|
12-12-12-12-12-12-12|
12-12-12-12-12-12-12|





|--------------------------------------------------------------------------|
|--------------------------------------------------------------------------|
|--9-9-9-9-9-9-9-9-111111119-9-9-9-----------------------------------------|
|7-7-7-7-7-7-7-7-9-9-9-9-7-7-7-7--9999-9-9999-9--11111111-11--12121212-12--|
|7-7-7-7-7-7-7-7-7-7-7-7-7-7-7-7--9999-9-9999-9--11111111-11--12121212-12--|
|7-7-7-7-7-7-7-7-7-7-7-7-7-7-7-7--9999-9-9999-9--11111111-11--12121212-12--|




Outro


|--------------------------------------------------------------------------|
|5h12p8h12p7h12p5h12p4h12p5h12p7h12p8-13p10h13p8h13p7h13p5h13p7h13p8h13p10-|
|--------------------------------------------------------------------------|
|--------------------------------------------------------------------------|
|--------------------------------------------------------------------------|
|--------------------------------------------------------------------------|


|--------------------------------------------------------------------------|
|-h10p8h10p7h10p5h10--h10p5h10p7h10p8-5p4p0h5p4p0h5p4p0h5p4p07p4p0h7p4p0h8-|
|h7------------------h7----------------------------------------------------|
|--------------------------------------------------------------------------|
|--------------------------------------------------------------------------|
|--------------------------------------------------------------------------|


|--------------------------------------------------------------------------|
|5h12p8h12p7h12p5h12p4h12p5h12p7h12p8--13p10h13p8h13p7h13p5h13p7h13p8h13p10|
|--------------------------------------------------------------------------|
|--------------------------------------------------------------------------|
|--------------------------------------------------------------------------|
|--------------------------------------------------------------------------|


|------------------------------------0h4h5p0h4h5p0h4h5p0h4h5-0h7h8p0h7h8-11|
|-h10p8h10p7h10p5h10--h10p5h10p7h10p8--------------------------------------|
|7------------------h7-----------------------------------------------------|
|--------------------------------------------------------------------------|
|--------------------------------------------------------------------------|
|--------------------------------------------------------------------------|



|--------------------------------------------------------------------------|
|-------12p0h10p0h10p0h8p0h8p0h7p0h7p0h5p0h5p0h4p0h4p0h5p0h5p0h7p0h7p0h8---|
|--------------------------------------------------------------------------|
|--------------------------------------------------------------------------|
|--------------------------------------------------------------------------|
|--------------------------------------------------------------------------|


|--------------------------------------------------------------------------|
|------12p0h12p0h10p0h10p0h8p0h8p0h7p0h7p0h5p0h5p0h3p0h3p0h5p0h5p0h7p0h7---|
|--------------------------------------------------------------------------|
|--------------------------------------------------------------------------|
|--------------------------------------------------------------------------|
|--------------------------------------------------------------------------|


|--------------------------------------------------------------------------|
|-----12p3p0h3h10p3p0h3h8p3p0h3h7p3p0h3h5p3p0h7p3p0h3h8p3p0h3h10p3p0h3-----|
|--------------------------------------------------------------------------|
|--------------------------------------------------------------------------|
|--------------------------------------------------------------------------|
|--------------------------------------------------------------------------|



|----------------10--------------------------------------------------------|
|-----8p6h8p6-10----12-12-13-13-12-12-10-10-12-12--8p6h8p6-----------------|
|--------------------------------------------------------------------------|
|--------------------------------------------------------------------------|
|--------------------------------------------------------------------------|
|--------------------------------------------------------------------------|


enjoy!

neb.rekoj





Comments


Popular Inme tabs & chords
Neptune Bass Tabs
Firefly 2 Chords
Angels With Snipers 1 Tabs
Chamber Tabs
Faster The Chase 2 Tabs
Her Mask P.A 2 Tabs
Neptune Tabs
Trenches (Intro) Tabs
2nd Jonquil Ukulele
Single Of The Weak Ukulele


Song lyrics



↑ Back to top | Tablatures and chords are parodies/interpretations of the original songs. You may use it for private study, scholarship, research or language learning purposes only
© 2014 AZChords.com Contact us | Privacy policy | DMCA | Add/correct tabs | Request tabs | Top 50 tabs