» » »

Inme, Chamber Bass tabs (ver.1)

Artists:  A B C D E F G H I J K L M N O P Q R S T U V W X Y Z # 

Chamber Bass tabs (ver.1)

Inme Tabs
Rating:
5/5 (1 vote)
Chamber lessons Tabs too difficult? Try these video lessons and learn fast
                Intro Riff
G|-7--7--7--7--7---6--6--6--6--6---7--7--6--6--6--6--6--7--6--4-|
D|9--9--9--9--9--97--7--7--7--7--75--5--5--5--5--0--0--0--0--0--|
A|--------------------------------------------------------------|
D|--------------------------------------------------------------|

G|-7--7--7--7--7---6--6--6--6--6---7--7--6--6--6--6--6--7--9--11-|
D|9--9--9--9--9--97--7--7--7--7--75--5--5--5--5--0--0--0--0--0---|
A|---------------------------------------------------------------|
D|---------------------------------------------------------------|


Verse 1 - 1st bit is simple bass note of chords, also 1st part of verse
G|----------------|--------------------------------|
D|----------------|--------------------------------|
A|2-----------5-4-|2--2/4-------------5--4-4h5p402-|
D|----4---5-------|------4--2/4-5--5/7-------------|

G|--------------------------------|
D|--------------------------------|
A|2--2/4-------------5--4-4h5p402-|
D|------4--2/4-5--5/7-------------|

G|---------------------------------|
D|---------------------------------|
A|2--2/4-------------5--4-4h5p405~-|
D|------4--2/4-5--5/7--------------|


Prechorus
G|-7--7--7--7--7---6--6--6--6--6h7p6---7--7--6--6--6--6--6--7--6--4-|
D|9--9--9--9--9--97--7--7--7--7-----75--5--5--5--5--0--0--0--0--0---|
A|------------------------------------------------------------------|
D|------------------------------------------------------------------|

G|-7--7--7--7--9/6--6--6--6--6--6h7p6---7--7--6--6--6--6--6--7--9--11/---|
D|9--9--9--9--9---7--7--7--7--7------75--5--5--5--5--0--0--0--0--0-------|
A|--------------------------------------------------------------------5~-|
D|-----------------------------------------------------------------------|


Chorus
G|---|-------------------------------------------------------|
D|---|-------------------------------------------------------|
A|---|-------------------------------------------------------|
D|12/|0-00-0-0-0-2-4-44-4-4-22h4-5-55-5-5-555-5-55-5-5-4b5r4-|

G|-----------------------------------------------------|
D|-----------------------------------------------------|
A|-----------------------------------------------------|
D|0-00-0-0-0-2-4-44-4-4-22h4-5-55-5-5-555-5-55-5-5-12--|

G|-------------------------------------------------------|
D|-------------------------------------------------------|
A|-------------------------------------------------------|
D|0-00-0-0-0-2-4-44-4-4-22h4-5-55-5-5-555-5-55-5-5-4b5r4-|

G|-----------------------------------------------------|
D|-----------------------------------------------------|
A|-----------------------------------------------------|
D|0-00-0-0-0-2-4-44-4-4-22h4-5-55-5-5-555-5-55-5-5-5h7-|


After Chorus
G|-7--7--7--7--7---6--6--6--6--6---7--7--6--6--6--6--6--7--6--4-|
D|9--9--9--9--9--97--7--7--7--7--75--5--5--5--5--0--0--0--0--0--|
A|--------------------------------------------------------------|
D|--------------------------------------------------------------|

G|-7--7--7--7--7---6--6--6--6--6---7--7--6--6--6--6--6--7--9--11-|
D|9--9--9--9--9--97--7--7--7--7--75--5--5--5--5--0--0--0--0--0---|
A|---------------------------------------------------------------|
D|---------------------------------------------------------------|

G|7~---------------|
D|-----------------|
A|----5~---4~------|
D|--------------0~-|


Chorus
G|-------------------------------------------------------|
D|-------------------------------------------------------|
A|-------------------------------------------------------|
D|0-00-0-0-0-2-4-44-4-4-22h4-5-55-5-5-555-5-55-5-5-4b5r4-|

G|-----------------------------------------------------|
D|-----------------------------------------------------|
A|-----------------------------------------------------|
D|0-00-0-0-0-2-4-44-4-4-22h4-5-55-5-5-555-5-55-5-5-12--|

G|-------------------------------------------------------|
D|-------------------------------------------------------|
A|-------------------------------------------------------|
D|0-00-0-0-0-2-4-44-4-4-22h4-5-55-5-5-555-5-55-5-5-4b5r4-|

G|-----------------------------------------------------|
D|-----------------------------------------------------|
A|-----------------------------------------------------|
D|0-00-0-0-0-2-4-44-4-4-22h4-5-55-5-5-555-5-55-5-5-5h7-|


Outro
G|----------------------|
D|----------------------|
A|2--2/4-------------5~-|
D|------4--2/4-5--5/7---|
            

comments powered by Disqus
↑ Back to top | Inme Bass for Chamber. Lyrics for acoustic guitar and electric guitar. Tablatures and chords are parodies/interpretations of the original songs. You may use it for private study, scholarship, research or language learning purposes only