» » »

When She Comes Bass tabs (ver.1)

Artists:  A B C D E F G H I J K L M N O P Q R S T U V W X Y Z # 

When She Comes Bass tabs (ver.1)

Injected
Rating:
0/5 (0 votes)

Hard to play? Try these video lessons and learn fast.
                injected
"when she comes"
burn it black, 2002
___________________________

verse:
G|----------------------------------------|
D|----------------------------------------|
A|-3-----------5----------3------------5--|
E|---3h4p3--0-----3h4p3------3h4p3--0-----|

chorus:
G|-----------------------|
D|-----------------------|
A|-----------------------|
E|--5-5-5-7-4--0-0-0-0---|

after chorus:
G|-----------------------|
D|-----------------------|
A|-----------------------|
E|--10--0-0--10--0-0-10--|
            
Hard to play? Try these video lessons and learn fast. | Correct




comments powered by Disqus
↑ Back to top | Tablatures and chords are parodies/interpretations of the original songs. You may use it for private study, scholarship, research or language learning purposes only