» » »

When She Comes Tabs (ver.1)

Artists:  A B C D E F G H I J K L M N O P Q R S T U V W X Y Z # 

When She Comes Tabs (ver.1)

Injected
Rating:
5/5 (1 vote)

Hard to play? Try these video lessons and learn fast.
                
Tuning: Drop D (DADGBE)

----------------------------
----------------------------
----------------------------
----------------------------
-3------5-------------------
---3v-0---3v-0--------------
  [0:01] Part 1, use wah wah pedal turned to the up position w/ distortion.

------------------------|----------------------
------------------------|----------------------
-5------7---------------|-5-5-5-5-5-7----------
-5-3--0-7-3--0----------|----------------------
-3-3--0-5-3--0----------|-3-3-3-3-3/5----------
---3p-0---3p-0----------|----------------------
 [0:03] Part 2, Heavy distortion.    [0:12] guitar 2 comes in

------------------------
------------------------
------------------------
------------------------
-3------5---------------
---3v-0---3v-0----------
 [0:20] Part 1, Verse "When She Comes..." w/ heavy distortion

-------------0----|-----------------------------
-------------3----|-----------------------------
-7-----------2----|-5-----5-----5---------------
-5-5-5-7-5-0------|-5-0-0-5-0-0-5---------------
-5-5-5-7-5-0------|-3-0-0-3-0-0-3---------------
-5-5-5-7-5-0------|---0-0---0-0-----------------
 [0:35] Part 3      [0:42]

--------------------------------------------------------------------------
----------------------------------------------------------/8-7------------
------------------------/7-4-5-7-4-5-7-4-5-5h7p5v--------------5v-4-2-0---
-/5-3-4-5-3-4-5-3-4-4v----------------------------4-4-4-4-----------------
--------------------------------------------------0-0-0-0-----------------
--------------------------------------------------------------------------
 [0:52] Part 4, guitar solo 1

---------------------------------------------------
-------------------------------/7v-----------------
--5-4-2-5-4-2-5-4-2-5-4-2-0------------------------
----------------------------4v---------------------
---------------------------------------------------
---------------------------------------------------
 guitar solo 1 continued....

-----------------------------------------------------------------------------
-----------------------------------6-10\-10h13p10h13p10h13p10h13-13-13b------
----------------------------5h7-7v-------------------------------------------
-0h7-7v--0h7p5-4h5p4-0-4b-7--------------------------------------------------
-----------------------------------------------------------------------------
-----------------------------------------------------------------------------
 [1:55]
            
Hard to play? Try these video lessons and learn fast. | Correct




comments powered by Disqus
↑ Back to top | Tablatures and chords are parodies/interpretations of the original songs. You may use it for private study, scholarship, research or language learning purposes only