>
 >
Used Up

Used Up Guitar Tabs

Injected - Used Up chords, tabs, tablatures, lyrics

Guitar lessons | Add/correct | Request | Top 50 tabs Artists:  A B C D E F G H I J K L M N O P Q R S T U V W X Y Z 0-9

Used Up Guitar Tabs – Injected

CD, Sheet music, Poster

Do you like Used Up? Share with your friends now
Tabs


DROP D

Into and Chorus Riff (Repeat)
------------------------------|--------------------------|----------------
------------------------------|--------------------------|----------------
------------------------------|--------------------------|----------------
------------------------------|--------------------------|----------------
---------5-3------5-3---3-----|-----5-2------5-2--2------|-----5-1-----5-1
--0--0-4------0-4---------4-0-|-0-4------0-4--------4-0--|-0-4-----0-4----


------------------------------------|---------
------------------------------------|---------
------------------------------------|---------
-----------0-0-3-4-0-3-4-0-3-4-0-5-4|---------
--1--------0-0-3-4-0-3-4-0-3-4-0-3-4|---------
----4--0---0-0-3-4-0-3-4-0-3-4-0---4|---------



Verse (Play Once)
--------------------|-------------------|------------------|-----------------
--------------------|-------------------|------------------|-----------------
-5-5---5-5----------|-4-4---4-4---------|-3-3---3-3--------|-2-2--2-2--------
-x-x---x-x----------|-x-x---x-x---------|-x-x---x-x--------|-x-x--x-x--2-5-5-
-3-3---3-3----3-4-5-|-2-2---2-2---3-4-5-|-1-1---1-1---5-6-7|-0-0--0-0--0-3-3-
-0-0---0-0----3-4-5-|-0-0---0-0---3-4-5-|-0-0---0-0---5-6-7|-0-0--0-0--------


----------------------------|----------------|------------------------------
----------------------------|----------------|------------------------------
-2--------------------------|-2--------------|---2--------------------------
-2--3---0--0--0---0--3-4-5--|-2-3----0--0-6--|---2-3---0--0--0---0--3-4-5---
-0--3---0--0--0---0--3-4-5--|-0-3----0--0-5--|---0-3---0--0--0---0--3-4-5---
----3---0--0--0---0--3-4-5--|---3----0--0-6--|-----3---0--0--0---0--3-4-5---


------------------------|--------------------------|-------------------------
------------------------|--------------------------|-------------------------
-2----------------------|--2-----------------------|-2-----------------------
-2-3---0--0--0---0-3-4-5|--2-3---0--0--0---0-5-6-7-|-2-3--0--0--0---0-2--5-5-
-0-3---0--0--0---0-3-4-5|--0-3---0--0--0---0-5-6-7-|-0-3--0--0--0---0-0--3-3-
---3---0--0--0---0-3-4-5|----3---0--0--0---0-5-6-7-|---3--0--0--0---0--------



Second Guitar over Chorus, Still plays the same last riff as the first guitar
----------------------|--------------------|--------------------------
--3333-3333-3333-3333-|-3333-3333-3333-3333|-3333-3333-3333-3333------
--5555-5555-5555-5555-|-4444-4444-4444-4444|-3333-3333-3333-3333------
----------------------|--------------------|--------------------------
----------------------|--------------------|--------------------------
----------------------|--------------------|--------------------------


Solo section (repeats)
-----------------------------------|-------------------------
-----------------------------------|-------------------------
-3---------------------------------|-------------------------
-3----0---3---5---5-4-5-7-5-4-0--0-|---5-7-5-4-0---0---------
-1----0---3---5---5-4-5-7-5-4-0--0-|---5-7-5-4-0---0---------
------0---3---5---5-4-5-7-5-4-0--0-|---5-7-5-4-0---0---------

Bridge (repeats)
--------------------------------------------------------------------------
--------------------------------------------------------------------------
--------------------------------------------10----10---10----10-----10----
-------------------------5-5-5---7-7--9-9---x-----x----x-----x------x-----
-5-5-5---7-7-7---8-8-8---3-3-3---5-5--7-7---8-----8----8-----8------8-----
-5-5-5---7-7-7---8-8-8-------------------------0-----0----0-----0-----0---





Comments


Popular Injected tabs & chords
When She Comes Bass Tabs
Bullet Tabs
Burn It Black 1 Tabs
Faithless 1 Tabs
Faithless 2 Tabs
Faithless Intro Tabs
I-Iv-V (Intro) Tabs
Misfortune 1 Tabs
Sensless Tabs
When She Comes Tabs


Song lyrics



↑ Back to top | Tablatures and chords are parodies/interpretations of the original songs. You may use it for private study, scholarship, research or language learning purposes only
© 2014 AZChords.com Contact us | Privacy policy | DMCA | Add/correct tabs | Request tabs | Top 50 tabs