» » »

Injected, I-Iv-V Tabs (ver.2)

Artists:  A B C D E F G H I J K L M N O P Q R S T U V W X Y Z # 

I-Iv-V Tabs (ver.2)

Injected Tabs
 Rating:
4/5 (4 votes)
I-Iv-V lessons Tabs too difficult? Try these video lessons and learn fast
1
                Lyrics: Danny Grady
Music: Injected
Label: Island Records
----------------------------------

This is 100% correct.  This could be a difficult song to play but it's great.
Notes about the signs used are at the bottom.  In order to make this fit, set
your margins (except for gutter) at .5.  For all you Injected fans, I hope
you enjoy!

Tuning: Drop D (low to high) D-A-D-G-B-E

Intro:

Gtr.1 (elec.) w/ dist.
|-----------------------------------------|-----------------------------------------|
|-----------------------------------------|-----------------------------------------|
|-----------------------------------------|-----------------------------------------|
|-5--5--5--7--7--7--5-----5--5--5---0--0--|-5--5--5--7--7--7--5---------------------|
|-5--5--5--7--7--7--5-----5--5--5---0--0--|-5--5--5--7--7--7--5---------------------|
|-5--5--5--7--7--7--5-----5--5--5---0--0--|-5--5--5--7--7--7--5--------------11\----|

Gtr.2 (elec.) w/ dist.
|-----------------------------------------|-----------------------------------------|
|-----------------------------------------|-----------------------------------------|
|-----------------------------------------|-4--4--4--6--6--6--11--------------------|
|-----------------------------------------|-x--x--x--x--x--x---x--------------------|
|-----------------------------------------|-2--2--2--4--4--4---9--------------------|
|----------------------------2/14\--0--0--|-----------------------------------------|

Verse:

Gtr.1 (Gtr.2 tacet)           repeat several times and then...
|-------------------------------------|-0--0--0--0--------0--0--0--0--------0--0--0----|
|-------------------------------------|-0--0--0--0--------0--0--0--0--------0--0--0----|
|-------------------------------------|-0--0--0--0--------0--0--0--0--------0--0--0----|
|-------------------------------------|-2--2--2--2--x--x--2--2--2--2--x--x--2--2--2----|
|-4--0-----4--0-----4--0-----4--0-----|-3--3--3--3--x--x--3--3--3--3--x--x--3--3--3--0-|
|-4--0-----4--0-----4--0-----4--0-----|------------------------------------------------|

|--------------------------------------------|------------------------|
|--------------------------------------------|------------------------|
|--------------------------------------------|------------------------|
|--------------------------------------------|------------------------|
|-4--0-----4--0-----4--0-----4--0----2-------|-------2--------4-------|
|-4--0-----4--0-----4--0-----4--0--0---4-2-0-|-3/4------4/5-----------|
                                   + + + + +

Pre-Chorus:

Gtr.1 (elec.) w/ clean tone  (Gtr.2 tacet)
|-0----------------------------------------|------------------------------------0-----|
|-0----------------------------------------|---------------------------------0-----0--|
|-6----------------------------------------|-----------------------------6------------|
|-4----------------------------------------|------------------------4-----------------|
|------------------------------------------|------------------------------------------|
|------------------------------------------|------------------------------------------|



|-~0---------------------------------------|-~0---------------------------------------|
|-~0---------------------------------------|-~0---------------------------------------|
|-~6---------------------------------------|-~6---------------------------------------|
|-~4---------------------------------------|-~4---------------------------------------|
|-~0---------------------------------------|-~0---------------------------------------|
|------------------------------------------|--------------------------------------12\-|

Gtr.3 (acous.)  Repeat several times
|------------------------------------------|------------------------------------------|
|------------------------------------------|------------------------------------------|
|-6----------4----------6----------4-------|-6----------4----------6---------4--------|
|-4----------4----------4----------4-------|-4----------4----------4---------4--------|
|-0----------x----------0----------x-------|-0----------x----------0---------x--------|
|------------5---------------------5-------|------------5--------------------5--------|

Chorus:

Gtr.1
|------------------------------------------|------------------------------------------|
|------------------------------------------|------------------------------------------|
|-6--6------4--4------6--6-----4--4--------|-6--6------4--4------6--6-----4--4--------|
|-4--4------4--4------4--4-----4--4--------|-4--4------4--4------4--4-----4--4--------|
|-0--0------x--x------0--0-----x--x--------|-0--0------x--x------0--0-----x--x--------|
|--------0--5--5---0---------0-5--5---0----|--------0--5--5---0---------0-5--5---0----|
         +         +         +        +             +         +         +        + 

Gtr.2
|------------------------------------------|------------------------------------------|
|----3---------3---------3--------3--------|----3---------3---------3--------3--------|
|-6---------4---------6--------4-----------|-6---------4---------6--------4-----------|
|------------------------------------------|------------------------------------------|
|------------------------------------------|------------------------------------------|
|------------------------------------------|------------------------------------------|

Interlude:

Gtr.1
|-----------------------------------------|-----------------------------------------|
|-0--0--0--2--2--2--0---------------------|-0--0--0--2--2--2--0---------------------|
|-0--0--0--2--2--2--0---------------------|-0--0--0--2--2--2--0---------------------|
|-0--0--0--2--2--2--0---------------------|-0--0--0--2--2--2--0---------------------|
|-x--x--x--0--0--0--x---------------------|-x--x--x--0--0--0--x---------------------|
|-5--5--5-----------5---------------------|-5--5--5-----------5---------------------|

Gtr.2                                                          bend and release 2 times
|-----------------------------------------|-----------------------------------------|
|-----------------------------------------|-----------------------------------------|
|-----------------------------------------|-4--4--4--6--6--6—-11^-------------------|
|-----------------------------------------|-x--x--x--x--x--x---x--------------------|
|--------------------------------------0--|-2--2--2--4--4--4---9--------------------|
|--------------------------------/12\--0--|-----------------------------------------|

Verse:

Pre-Chorus:

Gtr.1 is tacet 
Gtr.3 (acous.) plays same figure





Gtr.2 w/ dist.
|------------------------------------------|------------------------------------------|
|------------------------------------------|------------------------------------------|
|---6--------------------------------------|---(6)^-(6)~~~~~~~~~~~~~~~~~~~~~~~~~~~~~~~|
|------------------------------------------|------------------------------------------|
|------------------------------------------|------------------------------------------|
|------------------------------------------|------------------------------------------|

|------------------------------------------|------------------------------------------|
|------------------------------------------|------------------------------------------|
|------------------------------------------|------------------------------------------|
|---4-------4\2----------------------------|------------------------------------------|
|------------------------------------------|------------------------------------------|
|------------------------------------------|------------------------------------------|

|------------------------------------------|------------------------------------------|
|------------------------------------------|------------------------------------------|
|---4/6----(6)\4/6----------(6)^-(6)-------|---6~~~~~~~~~~~~~~~~~~~~~~~~~~~~~~~~~~~~~~|
|------------------------------------------|------------------------------------------|
|------------------------------------------|------------------------------------------|
|------------------------------------------|------------------------------------------|

|------------------------------------------|------------------------------------------|
|------------------------------------------|-7----------------------------------(7)^--|
|------------------------------------------|------------------------------------------|
|---4-------------7---4--------------------|------------------------------------------|
|------------------------------------------|------------------------------------------|
|------------------------------------------|------------------------------------------|

Chorus:

Interlude:
     Note: This part may be confusing; Gtr.1 (Gtr.4) is always on top of Gtr.2 
Gtr.1
|-----------------------------------------|-----------------------------------------|
|-----------------------------------------|-----------------------------------------|
|-----------------------------------------|-----------------------------------------|
|-5--5--5--7--7--7--5-----5--5--5---5--5--|-5--5--5--7--7--7--5-----5--5--5---5--5--|
|-5--5--5--7--7--7--5-----5--5--5---5--5--|-5--5--5--7--7--7--5-----5--5--5---5--5--|
|-5--5--5--7--7--7--5-----5--5--5---5--5--|-5--5--5--7--7--7--5-----5--5--5---5--5--|

Gtr.2
|-----------------------------------------|-----------------------------------------|
|-----------------------------------------|-----------------------------------------|
|-----------------------------------------|-4--4--4--6--6--6--11--------------------|
|-----------------------------------------|-x--x--x--x--x--x---x--------------------|
|-----------------------------------0--0--|-2--2--2--4--4--4---9--------------------|
|----------------------------2/14\--0--0--|-----------------------------------------|

Note: Gtr.1 plays same figure, but then Gtr.4 comes in and faces off with Gtr.2

Gtr.4
|-----------------------------------------|-----------------------------------------|
|-----------------------------------------|-----------------------------------x-----|
|-----------------------------------------|-----------------------------------x-----|
|-----------------------------------------|-----------------------------------x--0--|
|-2--2--2--4--4--4--2---------------------|--------------------------------------0--|
|-----------------------------------------|-----------------------------------------|


 


Gtr.2                                                         bend and release 2 times
|-----------------------------------------|-----------------------------------------|
|-----------------------------------------|-----------------------------------------|
|-----------------------------------------|-4--4--4--6--6--6—-11^-------------------|
|-----------------------------------------|-x--x--x--x--x--x---x--------------------|
|-----------------------------------------|-2--2--2--4--4--4---9--------------------|
|------------------------------14\--------|-----------------------------------------|

Gtr.4
|-----------------------------------------|-----------------------------------------|
|-----------------------------------------|-----------------------------------------|
|-11--11--11--6--6--6--4------------------|-----------------------------------x--x--|
|--x---x---x--x--x--x--x------------------|-----------------------------------x--x--|
|--9---9---9--4--4--4--2------------------|-----------------------------------x--x--|
|-----------------------------------------|-----------------------------------------|

Gtr.2
|-----------------------------------------|-----------------------------------------|
|-----------------------------------------|-----------------------------------------|
|-----------------------------------------|-4--4--4--6--6--6--11--------------------|
|-----------------------------------------|-x--x--x--x--x--x---x--------------------|
|-----------------------------------------|-2--2--2--4--4--4---9--------------------|
|------------------------------14\--------|-----------------------------------------|

Gtr.4                                     Gtr.1
|-----------------------------------------|-----------------------------------------|
|-----------------------------------------|-----------------------------------------|
|-11--11--11--6--6--6--4------------------|-----------------------------------------|
|--x---x---x--x--x--x--x------------------|-5--5--5--7--7--7--5---------------------|
|--9---9---9--4--4--4--2------------------|-5--5--5--7--7--7--5---------------------|
|-----------------------------------------|-5--5--5--7--7--7--5---------------------|

Gtr.2
|-----------------------------------------|-----------------------------------------|
|-----------------------------------------|-----------------------------------------|
|-----------------------------------------|-4--4--4--6--6--6--11--------------------|
|-----------------------------------------|-x--x--x--x--x--x---x--------------------|
|-----------------------------------------|-2--2--2--4--4--4---9--------------------|
|-----------------------------------------|-----------------------------------------|

Pre-Chorus:

Gtr.3 (acous.) plays same figure

Gtr.1 w/ clean tone
|------------------------------------0-----|-~0---------------------------------------|
|---------------------------------0-----0--|-~0---------------------------------------|
|-----------------------------6------------|-~6---------------------------------------|
|------------------------4-----------------|-~4---------------------------------------|
|------------------------------------------|-~0---------------------------------------|
|------------------------------------------|-------------------------------------16\--|

Gtr.2 w/ clean tone
|------------------------------------------|------------------------------------------|
|----3---------3---------3--------3--------|----3---------3---------3--------3--------|
|-6---------4---------6--------4-----------|-6---------4---------6--------4-----------|
|------------------------------------------|------------------------------------------|
|------------------------------------------|------------------------------------------|
|------------------------------------------|------------------------------------------|

Chorus:

Both Gtr.1 and Gtr.2 play chorus figure and then...
|------------------------------------------|
|------------------------------------------|
|--6---------------------------------------|
|--4---------------------------------------|
|--0---------------------------------------|
|--0---------------------------------------|


Legend:
\ - Slide Down
/ - Slide Up
x - Muffled Strings: A percussive sound is produced by laying the fret hand across
the string(s) without depressing, and striking them with the pick hand.
+ - Palm Muting: The note is partially muted by the pick hand lightly touching the
string(s) just before the bridge.
~ - Arpeggiate (before chord): Play the notes of the chord indicated by quickly
rolling them from bottom to top.
~ - Vibrato (after note): the string is vibrated by rapidly bending and releasing
the note with the fretting hand.

Note: Tablature numbers in parentheses mean:
1.      The note is being sustained over a system, or
2.      The note is sustained, but a new articulation (such as a hammer-on,
pull-off, slide or vibrato begins).
            
Submit corrections

comments powered by Disqus
↑ Back to top | Injected Tabs for I-Iv-V. Lyrics for acoustic guitar and electric guitar. 1 Tablatures and chords are parodies/interpretations of the original songs. You may use it for private study, scholarship, research or language learning purposes only