» » »

Faithless Tabs (ver.4)

Artists:  A B C D E F G H I J K L M N O P Q R S T U V W X Y Z # 

Faithless Tabs (ver.4)

Injected
Rating:
0/5 (0 votes)

Hard to play? Try these video lessons and learn fast.
                Injected Faithless

This is a great song, and lots of fun 2 play!

Drop D tuning

Intro

Guitar 1
e|-----------------------------------------------------------|
B|-----------------------------------------------------------|
G|-----------------------------------------------------------|
D|-3-x--1-1-x-1-1-x--3-3-x-3-3-x-3-3-x—-E...-----------------|
A|-3-x--1-1-x-1-1-x--3-3-x-3-3-x-3-3-x—-T...-----------------|
E|-3-x--1-1-x-1-1-x--3-3-x-3-3-x-3-3-x—-C...-----------------|

Guitar 2
e|-----------------------------------------------------------|
B|------------------8---6-------8---6h8---8---6--------------|
G|-7777777777777777---7---5/7-----7-----7---7---5/7---5b6—7~-|
D|----------------------------8---------------------8--------|
A|-----------------------------------------------------------|
E|-----------------------------------------------------------|

Chorus

Guitar 1
Play steady power chords: Eb5 F5 (111xxx, 333xxx).  Like the intro, 
but with no muting rhythm.

Guitar 2 (switch notes every time Guitar 1 switches chords) 
   Eb5       F5        Eb5        F5
e|-6---------5------------------------R--|
B|---------------------8----------6---E--|
G|------------------------------------P--|
D|------------------------------------E--|
A|------------------------------------A--|
E|------------------------------------T—-|

Solo

Guitar 1
e|----------------------------------|
B|----------------------------------|
G|----------------------------------|
D|-1-1-x-1-1----------1-1-x-1-1-----|
A|-1-1-x-1-1----------1-1-x-1-1-----|
E|-1-1-x-1-1----------1-1-x-1-1-----|

Guitar 2
e|----------------------------------|
B|----------------------------------|
G|------------5/7---------------7b8-|
D|----------------5-3---------------|
A|----------------------------------|
E|----------------------------------|

Guitar 1
e|----------------------------------------------------------------|
B|----------------------------------------------------------------|
G|----------------------------------------------------------------|
D|-1-1-x-1-1-x--3-3-x-3-3-x-3-3-x--1-1-x-1-1-x--3-3-x-3-3-x-3-3-x-|
A|-1-1-x-1-1-x--3-3-x-3-3-x-3-3-x--1-1-x-1-1-x--3-3-x-3-3-x-3-3-x-|
E|-1-1-x-1-1-x--3-3-x-3-3-x-3-3-x--1-1-x-1-1-x--3-3-x-3-3-x-3-3-x-| 

Guitar 2
e|----------------------------------------------------------------|
B|----------------------------------------------------------------|
G|--------------5/7-----------------------------7b8---------------|
D|------------------5-3-------------------------------------------|
A|----------------------------------------------------------------|
E|----------------------------------------------------------------|
            
Hard to play? Try these video lessons and learn fast. | Correct




comments powered by Disqus
↑ Back to top | Tablatures and chords are parodies/interpretations of the original songs. You may use it for private study, scholarship, research or language learning purposes only