» » »

Burn It Black Tabs (ver.1)

Artists:  A B C D E F G H I J K L M N O P Q R S T U V W X Y Z # 

Burn It Black Tabs (ver.1)

Injected
Rating:
1/5 (2 votes)

Hard to play? Try these video lessons and learn fast.
                

Drop D
+ sign underneath note means palm mute.

Intro (play once)
-------------------------------------|---------------------------
-------------------------------------|---------------------------
-------------------------------------|---------------------------
--0--3-3---0--3-3---0--3-3---0--3-3--|---5--7--5--4--5--4--0-----
--0--3-3---0--3-3---0--3-3---0--3-3--|---5--7--5--4--5--4--0-----
--0--3-3---0--3-3---0--3-3---0--3-3--|---5--7--5--4--5--4--0-----


Verse (Play twice)
----------------------------------|-----------------------------------
----------------------------------|-----------------------------------
----------------------------------|-----------------------------------
----------------------------------|-----------------------------------
-5-5-5-5-5-5-5-5-5-5-5-5-5-5-5-5--|-5-5-5-5-5-5-5-5-5-5-5-5-5-5-5-5---
-0-0-0-7-7-7-0-0-0-7-7-7-0-0-7-7--|-0-0-0-3-3-3-0-0-0-3-3-3-0-0-3-3---
 + + + + + + + + + + + + + + + +    + + + + + + + + + + + + + + + +

----------------------------------|-----------------------------------|----
----------------------------------|-----------------------------------|----
----------------------------------|-----------------------------------|----
----------------------------------|-0--3-3---0--3-3---0--3-3---0--3-3-|----
-3-3-3-3-3-3-3-3-3-3-3-3-3-3-3-3--|-0--3-3---0--3-3---0--3-3---0--3-3-|----
-0-0-0-1-1-1-0-0-0-1-1-1-0-0-1-1--|-0--3-3---0--3-3---0--3-3---0--3-3-|----
 + + + + + + + + + + + + + + + +

Chorus (play twice)
-|-----------------------------------------------------------
-|-----------------------------------------------------------
-|-----------------------------------------------------------
-|---3---3-3--5---5---5---5--7--5--4--5--4--0-----0-----0--2-
-|---3---3-3--3---3---3---5--7--5--4--5--4--0-----0-----0--2-
-|---3---3-3--------------5--7--5--4--5--4--0-----0-----0--2-


Chorus Turnaround (play once)
-----------------------------------------------|------------------------
-----------------------------------------------|------------------------
-----------------------------------------------|------------------------
--3--3--3--5--5--5--5--5---5---5-5----7---7-7--|--3---3-3--5--5-5-------
--3--3--3--3--3--3--3--3---5---5-5----5---5-5--|--3---3-3--3--3-3-------
--3--3--3------------------5---5-5-0-----------|--3---3-3---------------


Bridge Pt.1 (play four times)
--------------------------------------------------
--------------------------------------------------
--------------------------------------------------
-10--7--5---7-7---------5-5-5--4-4-4-4------------
-10--7--5---7-7---------5-5-5--4-4-4-4------------
-10--7--5---7-7---------5-5-5--4-4-4-4------------


Bridge Pt.2 (play four times)
--------------------------------------------
--------------------------------------------
--------------------------------------------
-10--7--5---7-7---5--5--4--4----------------
-10--7--5---7-7---5--5--4--4----------------
-10--7--5---7-7---5--5--4--4----------------


Bridge turnaround
----------------------------------------------------
----------------------------------------------------
----------------------------------------------------
-3--3--3--3-----------------------------0-2---------
-3--3--3--3-----------------------------0-2---------
-3--3--3--3---0-0-0-0-0-0-0-0-0-0-0-0---0-2---------
              + + + + + + + + + + + +
            
Hard to play? Try these video lessons and learn fast. | Correct




comments powered by Disqus
↑ Back to top | Tablatures and chords are parodies/interpretations of the original songs. You may use it for private study, scholarship, research or language learning purposes only