» » »

Injected, Bloodstained Tabs (ver.1)

Artists:  A B C D E F G H I J K L M N O P Q R S T U V W X Y Z # 

Bloodstained Tabs (ver.1)

Injected Tabs
 Rating:
4/5 (4 votes)
Bloodstained lessons Tabs too difficult? Try these video lessons and learn fast
1
                
I finally took the time to find out how to play this song. I suggest learning and
using up and down strokes to make this song easier and get the proper sound. Enjoy!

^ - bend up
x - muffled string

Intro - clean
|----------------------|----------------------|
|----------------------|----------------------|
|----------------------|----------------------|
|-5--5-5-x-x-x-x-x-x-5-|-4--4-4-x-x-x-x-x-x-4-|
|-3--3-3-x-x-x-x-x-x-3-|-3--3-3-x-x-x-x-x-x-3-|
|----------------------|----------------------|

|----------------------|----------------------|
|----------------------|----------------------|
|----------------------|----------------------|
|-5--5-5-x-x-x-x-x-x-5-|-4--4-4-x-x-x-x-x-x-4-|
|-3--3-3-x-x-x-x-x-x-3-|-3--3-3-x-x-x-x-x-x-3-|
|----------------------|----------------------|


Verse - clean
|-----------------------------------------|
|-----------------------------------------|
|-5--5-5-x-5--5-5-x-x-x-5-5-5-5-x-5-5-5-5-|repeat
|-5--5-5-x-5--5-5-x-x-x-4-4-4-4-x-4-4-4-4-|several times
|-3--3-3-x-3--3-3-x-x-x-3-3-3-3-x-3-3-3-3-|
|-----------------------------------------|

|-------------------------------------------|
|-------------------------------------------|
|-5--5-5-x-5--5-5-x-5-5-5-5-5-5-5-5-5-5-5-5-|measure
|-5--5-5-x-5--5-5-x-4-4-4-4-4-4-4-4-4-4-4-4-|before chorus
|-3--3-3-x-3--3-3-x-3-3-3-3-3-3-3-3-3-3-3-3-|
|-------------------------------------------|


Chorus - distortion
|--------------------|              |----------|
|--------------------|              |----------|
|--------------------|play x4 then  |----------|
|-3-3-3-5-5-5-0------|              |-0--------|
|-3-3-3-5-5-5-0------|              |-0--------|
|-3-3-3-5-5-5-0------|              |-0--------|

Solo 1 - same as verse
Verse - clean
Chorus - repeat x2
Solo 2 - same as before; slight distortion

Bridge - slight distortion
|--------------------|--------------------------|
|--------------------|--------------------------|
|----------------5^--|----------5-5-5-5-5-5-5-5-|
|-----5----4-------4-|-----5----5-5-5-5-5-5-5-5-|
|---3--------3-------|---3------3-3-3-3-3-3-3-3-|
|-3------------3-----|-3------------------------|


Chorus - repeat x2

Chorus Turnaround - distortion
|-----------------------------------------|
|-----------------------------------------|
|-------------------------5—-x-5---5—-x-5-|repeat x4
|-3-3-3-3-3-3-5-5-5-5-5-5-x—-x-x---x—-x-x-|
|-3-3-3-3-3-3-5-5-5-5-5-5-3—-x-3---3--x-3-|
|-3-3-3-3-3-3-5-5-5-5-5-5-----------------|


Outro - clean
|----------------------|--------------------|----------------------|
|----------------------|--------------------|----------------------|
|----------------5-----|----------------5---|----------------5-----|
|-----5----4-------4---|-----5----4---------|-----5----4-------4---|
|---3--------3-------3-|---3--------3-------|---3--------3-------3-|
|-3------------3-------|-3------------3-----|-3------------3-------|

|--------------------|--------------------|----------------------|
|--------------------|--------------------|----------------------|
|----------------5^--|----------------5^--|----------------5-----|
|-----5----4-------4-|-----5----4-------4-|-----5----4-------4---|
|---3--------3-------|---3--------3-------|---3--------3-------3-|
|-3------------3-----|-3------------3-----|-3------------3-------|

|--------------------|--------------------|
|--------------------|--------------------|
|----------------5^--|----------5---------|
|-----5----4-------4-|-----5----4---------|
|---3--------3-------|---3----------------|
|-3------------3-----|-3------------------|
            
Submit corrections

comments powered by Disqus
↑ Back to top | Injected Tabs for Bloodstained. Lyrics for acoustic guitar and electric guitar. 1 Tablatures and chords are parodies/interpretations of the original songs. You may use it for private study, scholarship, research or language learning purposes only