>
 >
Tonight We Die Together

Tonight We Die Together Guitar Tabs

Inhale Exhale - Tonight We Die Together chords, tabs, tablatures, lyrics

Guitar lessons | Add/correct | Request | Top 50 tabs Artists:  A B C D E F G H I J K L M N O P Q R S T U V W X Y Z 0-9

Tonight We Die Together Guitar Tabs – Inhale Exhale

CD, Sheet music, Poster

Do you like Tonight We Die Together? Share with your friends now
Tabs

Intro: (Come in after first bar of Drums and Bass)

D||-----------------------------------|
A||-----------------------------------|
F||-14~~~~14b~~~~---------------------|
C||-----------------------------------|
G||-----------------------------------|
C||--------------(Pick-slide for a Bar)

Verse 1:

D||---------------------------------------------------|
A||---------------------------------------------------|
F||---------------------------------------------------|
C||-0-000-12\10-0-000-10\8-0-000-8\7-00-78-00---------|
G||-0-000-12\10-0-000-10\8-0-000-8\7-00-78-00---------|
C||-0-000-12\10-0-000-10\8-0-000-8\7-00-78-00-7h8h10~-|x3
      ***         ***        ***     **     **
D||---------------------------------------------------|
A||---------------------------------------------------|
F||---------------------------------------------------|
C||-0-000-12\10-0-000-10\8-0-000-8\7-00-78-00---------|
G||-0-000-12\10-0-000-10\8-0-000-8\7-00-78-00---------|
C||-0-000-12\10-0-000-10\8-0-000-8\7-00-78-00-7h8~----|x1
      ***         ***        ***     **     **


Pre-Chorus Riff:

D||------------------------|
A||------------------------|
F||------------------------|
C||-12-12-12\777-888888-8x-|
G||-12-12-12\777-888888-8x-|
C||-12-12-12\777-888888-8x-|

Chorus:
    C5C5C5C5C5C5C5C5C5C5C5C5Bb5Bb5Bb5Bb5 Ab5Ab5Ab5Ab5 
D||--------------------------------------------------|
A||--------------------------------------------------|
F||--------------------------------------------------|
C||-121212121212121212121212101010101010-8-8-8-8-8-8-|
G||-121212121212121212121212101010101010-8-8-8-8-8-8-|
C||-121212121212121212121212101010101010-8-8-8-8-8-8-| x4

Verse 2:

D||---------------------------------------------------|
A||---------------------------------------------------|
F||---------------------------------------------------|
C||-0-000-12\10-0-000-10\8-0-000-8\7-00-78-00---------|
G||-0-000-12\10-0-000-10\8-0-000-8\7-00-78-00---------|
C||-0-000-12\10-0-000-10\8-0-000-8\7-00-78-00-7h8h10~-|x3
      ***         ***        ***     **     **
D||---------------------------------------------------|
A||---------------------------------------------------|
F||---------------------------------------------------|
C||-0-000-12\10-0-000-10\8-0-000-8\7-00-78-00---------|
G||-0-000-12\10-0-000-10\8-0-000-8\7-00-78-00---------|
C||-0-000-12\10-0-000-10\8-0-000-8\7-00-78-00-7h8~----|x1
      ***         ***        ***     **     **

Interlude:

D||----------------------------------------|
A||----------------------------------------|
F||----------------------------------------|
C||-12~~~~12~14~15~14~12~12~14~15~14~12~12~|
G||-12~~~~---------------------------------|
C||-12~~~~---------------------------------|

D||----------------------------------------|
A||----------------------------------------|
F||-----12~------12~-----------------------|
C||--12~------12~---12~--------------------|
G||----------------------------------------|
C||----------------------------------------|

Verse 3:

D||----------------------------------|
A||----------------------------------|
F||----------------------------------|
C||-0-000-12\10-00-12\10-00-12\10----|
G||-0-000-12\10-00-12\10-00-12\10----|
C||-0-000-12\10-00-12\10-00-12\10----|
      ***       **       **       
D||----------------------------------|
A||----------------------------------|
F||----------------------------------|
C||-0-000-12\10-00-12\10-00-12\10-x--|
G||-0-000-12\10-00-12\10-00-12\10-x--|
C||-0-000-12\10-00-12\10-00-12\10-x--|
      ***       **       **       
D||----------------------------------|
A||----------------------------------|
F||----------------------------------|
C||-0-000-12\10-00-12\10-00-12\10----|
G||-0-000-12\10-00-12\10-00-12\10----|
C||-0-000-12\10-00-12\10-00-12\10----|
      ***       **       **       

D||--------------------------------------|
A||--------------------------------------|
F||-------------------------------14b15--|
C||-0-000-12\10-00-12\10-00-12\10--------|
G||-0-000-12\10-00-12\10-00-12\10--------|
C||-0-000-12\10-00-12\10-00-12\10--------|
      ***       **       **  

Pre-Chorus Riff:

D||------------------------|
A||------------------------|
F||------------------------|
C||-12-12-12\777-888888-8x-|
G||-12-12-12\777-888888-8x-|
C||-12-12-12\777-888888-8x-|     

Chorus:
    CmCmCmCmCmCmCmCmCmCmCmCmBbBbBbBbBbBb AbAbAbAbAbAb 
D||--------------------------------------------------|
A||--------------------------------------------------|
F||--------------------------------------------------|
C||-121212121212121212121212101010101010-8-8-8-8-8-8-|
G||-121212121212121212121212101010101010-8-8-8-8-8-8-|
C||-121212121212121212121212101010101010-8-8-8-8-8-8-| x4

Outro:

D||--------|
A||--------|
F||--------|
C||-12~~~~-|
G||-12~~~~-|
C||-12~~~~-|





Comments


Popular Inhale Exhale tabs & chords
Is The Fact That Im Trying To Do It For You Bass Tabs
A Call To The Faithful Intro Tabs
A Call To The Faithful Intro 1 Tabs
Fluvanna Tabs
Fluvanna 1 Tabs
It's Myself Vs. Being A Man 1 Tabs
It's Myself Vs. Being A Man 2 Tabs
Its Myself Vs Being A Man Intro Tabs
Sons Of Tomorrow (To Noah James) 1 Tabs
Sons Of Tomorrow (To Noah James) 2 Tabs


Song lyrics



↑ Back to top | Tablatures and chords are parodies/interpretations of the original songs. You may use it for private study, scholarship, research or language learning purposes only
© 2014 AZChords.com Contact us | Privacy policy | DMCA | Add/correct tabs | Request tabs | Top 50 tabs