» » »

Inhale Exhale, It's Myself Vs. Being A Man Tabs (ver.4)

Artists:  A B C D E F G H I J K L M N O P Q R S T U V W X Y Z # 

It's Myself Vs. Being A Man Tabs (ver.4)

Inhale Exhale Tabs
Rating:
0/5 (0 votes)
It's Myself Vs. Being A Man lessons Tabs too difficult? Try these video lessons and learn fast
                It's Myself vs. Being a Man
Inhale Exhale
I Swear...
2008 Solid State Records


Intro
D|----------------15| These are fifteen, twelve and thirteen, not one, two,
A|1212121212121312--| three, and five.
F|------------------|
C|------------------|
G|------------------|
C|------------------|

Intro (Part 2)
D|---------8|
A|888888108-|
F|----------|
C|----------|
G|----------|
C|----------|

Pre-verse
D|---------------------------------|
A|---------------------------------|
F|10~~10-10~~10----101010101010----|
C|10~~10-10~~100~~~1010101010100~~~|
G|8~~~8--8~~~8-0~~~8-8-8-8-8-8-0~~~|
C|-------------0~~~------------0~~~|

Verse (Part 1)
D|---------|
A|---------|
F|------888| You may want to bend that 8/6 chord.
C|------666|
G|00-0-0---|
C|00-0-0---|
  .. . .

Verse (Part 2)
D|-----------|
A|-----------|
F|-----------|
C|-----------|
G|-----------|
C|03-4-04-5-6|

Pre-chorus
D|------|      D|------|
A|------|      A|------|
F|------|      F|------|
C|------|      C|------|
G|-36563|      G|-25452|
C|0-----| x4   C|0-----|

[Chorus]
(Part 1)
D|---------------------------|
A|---------------------------|
F|---------------------------|
C|1~~1~111~~1~111~~1~111~~1~1|
G|1~~1~111~~1~111~~1~111~~1~1|
C|1~~1~111~~1~111~~1~111~~1~1|

(Part 2)
D|------------|
A|------------|
F|------------|
C|555555555555|
G|555555555555|
C|555555555555|

Play Part 1 again

(Part 3)
D|--------------------|
A|--------------------|
F|--------------------|
C|5~~5~555~~5~55444444|
G|5~~5~555~~5~55444444|
C|5~~5~555~~5~55444444|
[End of Chorus]

Breakdown
D|----------------------|
A|----------------------|
F|----------------------|
C|----------------------|
G|-------5-3--------0000|
C|0-2-3-0-0-00-2-3-00000|
                    ....

Outro
D|----------------------------|
A|----------------------------|
F|10~~10~10~~10~--------------|
C|10~~10~10~~10~0~~~~~~~~~~~~~|
G|8~~~8~~8~~~8~~0~~~~~~~~~~~~~|
C|--------------0~~~~~~~~~~~~~|Let ring.

Key:
~ = hold note out
. = palm mute

Song Structure
________________

Intro x 8
Intro (pt.2) x 4
Intro x 4
Intro (pt.2) x 4
Pre-verse x 1
Verse (pt.1) x 3
Verse (pt.2) x 1
Verse (pt.1) x 3
Verse (pt.2) x 1
Pre-Chorus x 2
Chorus x 1
Intro x 4
Intro (pt.2) x 4
Intro x 4
Intro (pt.2) x 4
Pre-verse x 1
Verse (pt.1) x 3
Verse (pt.2) x 1
Verse (pt.1) x 3
Verse (pt.2) x 1
Pre-chorus x 2
Chorus x 1
Intro x 4
Intro (pt.2) x 4
Intro x 4
Intro (pt.2) x 4
Pre-verse x 1
Breakdown x 8
Pre-chorus x 2
Chorus x 1
Intro x 4
Intro (pt.2) x 4
Intro x 4
Intro (pt.2) x 4
Outro x 1 and let ring.

Thank you for viewing this tab. This tab works best when played along with the song.
            

comments powered by Disqus
↑ Back to top | Inhale Exhale Tabs for It's Myself Vs. Being A Man. Lyrics for acoustic guitar and electric guitar. Tablatures and chords are parodies/interpretations of the original songs. You may use it for private study, scholarship, research or language learning purposes only