» » »

I Need A Space Ship Instead I Got Problems Tabs (ver.1)

Artists:  A B C D E F G H I J K L M N O P Q R S T U V W X Y Z # 

I Need A Space Ship Instead I Got Problems Tabs (ver.1)

Inhale Exhale
Rating:
5/5 (1 vote)

Hard to play? Try these video lessons and learn fast.
                -------------------------------------------------------------------------------
         I Need A Space Ship(Instead I got Problems) - Inhale Exhale
-------------------------------------------------------------------------------

Tuning: CGCFAD


D|---------------------------------------------------------------------------|
A|---------------------------------------------------------------------------|
F|-----9+--------------------------------------------------------------------|
C|---------------------------------------------------------------------------|
G|---------------------------------------------------------------------------|
C|---------------------------------------------------------------------------|


D|---------------------------------------------------------------------------|
A|-----------11--10----------11--10----------11--10--------------------------|
F|---------------------------------------------------------------------------|
C|-----------8---7-----------8---7-----------8---7-----66666555--------------|
G|-----5h6-0---0----00-5h6-0---0----00-5h6-0---0----00-66666555--------------|
C|-----5h6-0---0----00-5h6-0---0----00-5h6-0---0----00-66666555--------------|


D|---------------------------------------------------------------------------|
A|-----------11--10----------11--10----------11--10--------------------------|
F|---------------------------------------------------------------------------|
C|-----------8---7-----------8---7-----------8---7-----66666555--------------|
G|-----5h6-0---0----00-5h6-0---0----00-5h6-0---0----00-66666555--------------|
C|-----5h6-0---0----00-5h6-0---0----00-5h6-0---0----00-66666555--------------|


D|---------------------------------------------------------------------------|
A|-----------11--10----------11--10----------11--10--------------------------|
F|---------------------------------------------------------------------------|
C|-----------8---7-----------8---7-----------8---7-----66666555--------------|
G|-----5h6-0---0----00-5h6-0---0----00-5h6-0---0----00-66666555--------------|
C|-----5h6-0---0----00-5h6-0---0----00-5h6-0---0----00-66666555--------------|


D|---------------------------------------------------------------------------|
A|---------------------------------------------------------------------------|
F|-------------9--------------9--------------9-------------------------------|
C|--------------------------------------------------66666555-----------------|
G|-----6p5000--8--00--6p5000--8--00--6p5000--8--00--66666555-----------------|
C|-----6p5000-----00--6p5000-----00--6p5000-----00--66666555-----------------|


D|---------------------------------------------------------------------------|
A|---------------------------------------------------------------------------|
F|-------------9--------------9--------------9-------------------------------|
C|--------------------------------------------------66666555-----------------|
G|-----6p5000--8--00--6p5000--8--00--6p5000--8--00--66666555-----------------|
C|-----6p5000-----00--6p5000-----00--6p5000-----00--66666555-----------------|


D|---------------------------------------------------------------------------|
A|---------------------------------------------------------------------------|
F|--------12-----11---------12-----11---------12-----11-------11--------9----|
C|--9-9-9----9-9----9-9-9-9----9-9----9-9-9-9----9-9----9-0-0----12-0-0---10-|
G|---------------------------------------------------------------------------|
C|---------------------------------------------------------------------------|


D|---------------------------------------------------------------------------|
A|---------------------------------------------------------------------------|
F|--------12-----11---------12-----11---------12-----11-------11--------9----|
C|--9-9-9----9-9----9-9-9-9----9-9----9-9-9-9----9-9----9-0-0----12-0-0---10-|
G|---------------------------------------------------------------------------|
C|---------------------------------------------------------------------------|


D|---------------------------------------------------------------------------|
A|---------------------------------------------------------------------------|
F|------12-12-12-12-12-----11-11-11-11-11-----12-12-12-12-12----11-------9---|
C|-9-9-9--------------9-9-9--------------9-9-9--------------0-0---12-0-0--10-|
G|---------------------------------------------------------------------------|
C|---------------------------------------------------------------------------|


D|---------------------------------------------------------------------------|
A|---------------------------------------------------------------------------|
F|------12-12-12-12-12-----11-11-11-11-11-----12-12-12-12-12----11-------9---|
C|-9-9-9--------------9-9-9--------------9-9-9--------------0-0---12-0-0--10-|
G|---------------------------------------------------------------------------|
C|---------------------------------------------------------------------------|


D|---------------------------------------------------------------------------|
A|---------------------------------------------------------------------------|
F|---------------------------------------------------------------------------|
C|-----9---9\----3---3\------------------------------------------------------|
G|-----9---9\----3---3\------------------------------------------------------|
C|-----9---9\----3---3\------------------------------------------------------|


D|---------------------------------------------------------------------------|
A|---------------------------------------------------------------------------|
F|-----------------------------------------------------8-8-8-88--------------|
C|----5p3p0--------5p3p0------6p3p0--------5p3p0-----------------------------|
G|---------5p3p0--------5p3p0------5p3p0--------5p3p0--7-7-7-77--------------|
C|--00-----------00----------------------00-----------0-0-0-0----------------|


D|---------------------------------------------------------------------------|
A|---------------------------------------------------------------------------|
F|-----------------------------------------------------8-8-8-88--------------|
C|----5p3p0--------5p3p0------6p3p0--------5p3p0-----------------------------|
G|---------5p3p0--------5p3p0------5p3p0--------5p3p0--7-7-7-77--------------|
C|--00-----------00----------------------00-----------0-0-0-0----------------|


D|---------------------------------------------------------------------------|
A|---------------------------------------------------------------------------|
F|----5p3p0--------5p3p0------6p3p0--------5p3p0--------5p3p0----------------|
C|---------5p3p0--------5p3p0------5p3p0--------5p3p0--------5p3p0-----------|
G|----------------------------------------------------------------5p3p0------|
C|--00-----------00----------------------00-----------00---------------5p3p0-|


D|---------------------------------------------------------------------------|
A|---------------------------------------------------------------------------|
F|----5p3p0--------5p3p0------6p3p0--------5p3p0--------5p3p0-----6^---------|
C|---------5p3p0--------5p3p0------5p3p0--------5p3p0--------5p3p0-----------|
G|---------------------------------------------------------------------------|
C|--00-----------00----------------------00-----------00---------------------|


D|---------------------------------------------------------------------------|
A|-----------11--10----------11--10----------11--10--------------------------|
F|---------------------------------------------------------------------------|
C|-----------8---7-----------8---7-----------8---7-----66666555--------------|
G|-----5h6-0---0----00-5h6-0---0----00-5h6-0---0----00-66666555--------------|
C|-----5h6-0---0----00-5h6-0---0----00-5h6-0---0----00-66666555--------------|


D|---------------------------------------------------------------------------|
A|-----------11--10----------11--10----------11--10--------------------------|
F|---------------------------------------------------------------------------|
C|-----------8---7-----------8---7-----------8---7-----66666555--------------|
G|-----5h6-0---0----00-5h6-0---0----00-5h6-0---0----00-66666555--------------|
C|-----5h6-0---0----00-5h6-0---0----00-5h6-0---0----00-66666555--------------|


D|---------------------------------------------------------------------------|
A|---------------------------------------------------------------------------|
F|-------------9--------------9--------------9-------------------------------|
C|--------------------------------------------------66666555-----------------|
G|-----6p5000--8--00--6p5000--8--00--6p5000--8--00--66666555-----------------|
C|-----6p5000-----00--6p5000-----00--6p5000-----00--66666555-----------------|


D|---------------------------------------------------------------------------|
A|---------------------------------------------------------------------------|
F|-------------9--------------9--------------9-------------------------------|
C|--------------------------------------------------66666555-----------------|
G|-----6p5000--8--00--6p5000--8--00--6p5000--8--00--66666555-----------------|
C|-----6p5000-----00--6p5000-----00--6p5000-----00--66666555-----------------|


D|---------------------------------------------------------------------------|
A|---------------------------------------------------------------------------|
F|--------12-----11---------12-----11---------12-----11-------11--------9----|
C|--9-9-9----9-9----9-9-9-9----9-9----9-9-9-9----9-9----9-0-0----12-0-0---10-|
G|---------------------------------------------------------------------------|
C|---------------------------------------------------------------------------|


D|---------------------------------------------------------------------------|
A|---------------------------------------------------------------------------|
F|--------12-----11---------12-----11---------12-----11-------11--------9----|
C|--9-9-9----9-9----9-9-9-9----9-9----9-9-9-9----9-9----9-0-0----12-0-0---10-|
G|---------------------------------------------------------------------------|
C|---------------------------------------------------------------------------|


D|---------------------------------------------------------------------------|
A|---------------------------------------------------------------------------|
F|------12-12-12-12-12-----11-11-11-11-11-----12-12-12-12-12----11-------9---|
C|-9-9-9--------------9-9-9--------------9-9-9--------------0-0---12-0-0--10-|
G|---------------------------------------------------------------------------|
C|---------------------------------------------------------------------------|


D|---------------------------------------------------------------------------|
A|---------------------------------------------------------------------------|
F|------12-12-12-12-12-----11-11-11-11-11-----12-12-12-12-12----11-------9---|
C|-9-9-9--------------9-9-9--------------9-9-9--------------0-0---12-0-0--10-|
G|---------------------------------------------------------------------------|
C|---------------------------------------------------------------------------|


D|---------------------------------------------------------------------------|
A|---------------------------------------------------------------------------|
F|---------------------------------------------------------------------------|
C|-----9---9\----3---3\------------------------------------------------------|
G|-----9---9\----3---3\------------------------------------------------------|
C|-----9---9\----3---3\------------------------------------------------------|


D|---------------------------------------------------------------------------|
A|---------------------------------------------------------------------------|
F|-----------------------------------------------------8-8-8-88--------------|
C|----5p3p0--------5p3p0------6p3p0--------5p3p0-----------------------------|
G|---------5p3p0--------5p3p0------5p3p0--------5p3p0--7-7-7-77--------------|
C|--00-----------00----------------------00-----------0-0-0-0----------------|


D|---------------------------------------------------------------------------|
A|---------------------------------------------------------------------------|
F|-----------------------------------------------------8-8-8-88--------------|
C|----5p3p0--------5p3p0------6p3p0--------5p3p0-----------------------------|
G|---------5p3p0--------5p3p0------5p3p0--------5p3p0--7-7-7-77--------------|
C|--00-----------00----------------------00-----------0-0-0-0----------------|


D|---------------------------------------------------------------------------|
A|---------------------------------------------------------------------------|
F|----5p3p0--------5p3p0------6p3p0--------5p3p0--------5p3p0----------------|
C|---------5p3p0--------5p3p0------5p3p0--------5p3p0--------5p3p0-----------|
G|----------------------------------------------------------------5p3p0------|
C|--00-----------00----------------------00-----------00---------------5p3p0-|


D|---------------------------------------------------------------------------|
A|---------------------------------------------------------------------------|
F|----5p3p0--------5p3p0------6p3p0--------5p3p0--------5p3p0-----6^---------|
C|---------5p3p0--------5p3p0------5p3p0--------5p3p0--------5p3p0------0----|
G|----------------------------------------------------------------------0----|
C|--00-----------00----------------------00-----------00----------------0----|


D|---------------------------------------------------------------------------|
A|---------------------------------------------------------------------------|
F|---------------66-------------66-------------66----66---66-----------------|
C|---------------------------------------------------------------------------|
G|---3-2-0-3-2-0-55-3-2-0-3-2-0-55-3-2-0-3-2-0-55--0-55-0-55-----------------|
C|---3-2-0-3-2-0----3-2-0-3-2-0----3-2-0-3-2-0-----0----0--------------------|


D|---------------------------------------------------------------------------|
A|---------------------------------------------------------------------------|
F|---------------66-------------66-------------66----66---66-----------------|
C|---------------------------------------------------------------------------|
G|---3-2-0-3-2-0-55-3-2-0-3-2-0-55-3-2-0-3-2-0-55--0-55-0-55-----------------|
C|---3-2-0-3-2-0----3-2-0-3-2-0----3-2-0-3-2-0-----0----0--------------------|


D|---------------------------------------------------------------------------|
A|---------------------------------------------------------------------------|
F|---------------66-------------66-------------66----66---66-----------------|
C|---------------------------------------------------------------------------|
G|---------------55-------------55-------------55----55---55-----------------|
C|---3-2-0-3-2-0----3-2-0-3-2-0----3-2-0-3-2-0-----0----0--------------------|


D|---------------------------------------------------------------------------|
A|---------------------------------------------------------------------------|
F|---------------66-------------66-------------66----66---66-----------------|
C|---------------------------------------------------------------------------|
G|---------------55-------------55-------------55----55---55-----------------|
C|---3-2-0-3-2-0----3-2-0-3-2-0----3-2-0-3-2-0-----0----0--------------------|


D|---------------------------------------------------------------------------|
A|-------8----------------8----------------8---------------------------------|
F|-------------11p9-------------11p9-------------11p9-------12-11-----12-11--|
C|-9-9-9---9-9------9-9-9---9-9------9-9-9---9-9-------11-11-----11-11-------|
G|---------------------------------------------------------------------------|
C|---------------------------------------------------------------------------|


D|---------------------------------------------------------------------------|
A|-------8----------------8----------------8---------------------------------|
F|-------------11p9-------------11p9-------------11p9-------12-11-----12^----|
C|-9-9-9---9-9------9-9-9---9-9------9-9-9---9-9-------11-11-----11-11-------|
G|---------------------------------------------------------------------------|
C|---------------------------------------------------------------------------|


D|---------------------------------------------------------------------------|
A|---------------------------------------------------------------------------|
F|------12-12-12-12-12-----11-11-11-11-11-----12-12-12-12-12----11-------9---|
C|-9-9-9--------------9-9-9--------------9-9-9--------------0-0---12-0-0--10-|
G|---------------------------------------------------------------------------|
C|---------------------------------------------------------------------------|


D|---------------------------------------------------------------------------|
A|---------------------------------------------------------------------------|
F|------12-12-12-12-12-----11-11-11-11-11-----12-12-12-12-12----11-------9---|
C|-9-9-9--------------9-9-9--------------9-9-9--------------0-0---12-0-0--10-|
G|---------------------------------------------------------------------------|
C|---------------------------------------------------------------------------|


D|---------------------------------------------------------------------------|
A|---------------------------------------------------------------------------|
F|-----------------------------------------8-----8---------------------------|
C|----5p3p0-----------------5p3p0--------------------------------------------|
G|--00-----5p3p0-0000-00--00-----5p3p0-000-7-000-7-00------------------------|
C|--00-----------0000-00--00-----------000---000---00------------------------|


D|---------------------------------------------------------------------------|
A|---------------------------------------------------------------------------|
F|-----------------------------------------8-----8---------------------------|
C|----5p3p0-----------------5p3p0--------------------------------------------|
G|--00-----5p3p0-0000-00--00-----5p3p0-000-7-000-7-00------------------------|
C|--00-----------0000-00--00-----------000---000---00------------------------|


D|---------------------------------------------------------------------------|
A|---------------------------------------------------------------------------|
F|-----------------------------------------8-----8---------------------------|
C|----5p3p0-----------------5p3p0--------------------------------------------|
G|--00-----5p3p0-0000-00--00-----5p3p0-000-7-000-7-00------------------------|
C|--00-----------0000-00--00-----------000---000---00------------------------|


D|---------------------------------------------------------------------------|
A|---------------------------------------------------------------------------|
F|-----------------------------------------8-----8---------------------------|
C|----5p3p0-----------------5p3p0----------------------0---------------------|
G|--00-----5p3p0-0000-00--00-----5p3p0-000-7-000-7-00--0---------------------|
C|--00-----------0000-00--00-----------000---000---00--0---------------------|


| /  slide up
| \  slide down
| h  hammer-on
| p  pull-off
| ~  vibrato
| +  harmonic
| x  Mute note
| ^  bend up
===============================================================================
            
Hard to play? Try these video lessons and learn fast. | Correct




comments powered by Disqus
↑ Back to top | Tablatures and chords are parodies/interpretations of the original songs. You may use it for private study, scholarship, research or language learning purposes only