» » »

Inhale Exhale, Frail Dreams And Rude Awakenings Tabs (ver.1)

Artists:  A B C D E F G H I J K L M N O P Q R S T U V W X Y Z # 

Frail Dreams And Rude Awakenings Tabs (ver.1)

Inhale Exhale Tabs
Rating:
5/5 (12 votes)
Frail Dreams And Rude Awakenings lessons Tabs too difficult? Try these video lessons and learn fast
                -------------------------------------------------------------------------------
-------------------------------------------------------------------------------

Tuning:Drop C

Play (x2)
e|------------------------------------------------------------------------------------------------------------------------|
B|------------------------------------------------------------------------------------------------------------------------|
G|------------------------------------------------------------------------------------------------------------------------|
D|-0-------------------------------0------------------------0-0-0-0------------------------------0------------------------|
A|-0--------3h5--------------------0--------3h5-------------0-0-0-0--------3h5-------------------0--------3h5-------------|
E|-0--5-3-0-----0-6-3-0-5-3-0-5-3--0--5-3-0-----0-6-3-0-5-3-0-0-0-0--5-3-0-----0-6-3-0-5-3-0-5-3-0--5-3-0-----0-6-3-0-5-3-|
                                                            .....
Play (x2)
e|----------------------------------------------------------------|
B|----------------------------------------------------------------|
G|----------------------------------------------------------------|
D|----------------------------------------------------------------|
A|---3h5---3h5---3h5---3h5-3-----------3h5---3h5--3h5---3h5-6--5--|
E|-0-----0-----0-----0-------6-5-3---0-----0-----0----0-----------|
   .     .     .     .               .     .     .    .
Play (x2)
e|------------------------------------------------------------------------------|
B|------------------------------------------------------------------------------|
G|------------------------------------------------------------------------------|
D|---------------------------------8-8-8-0-------------------------------8--10--|
A|---------------------------------8-8-8-0-------------------------------8--10--|
E|-0-12-10-0-12-10-0-12-10-0-12-10-8-8-8-0-12-10-0-12-10-0-12-10-0-12-10-8--10--|

Play (x2)
Struming pattern not shown
e|-------------------------------------------------------------------------|
B|-------------------------------------------------------------------------|
G|--------------------------14-14-14-12-12-12-12------------------(x4)-----|
D|-8------10------0---0-0----x--x--x--x--x--x--x--8------10-------0-0-0-0--|
A|-8------10------0---0-0---12-12-12-10-10-10-10--8------10-------0-0-0-0--|
E|-8------10------0---0-0-------------------------8------10-------0-0-0-0--|
                      ...                                         .....

Play (x2)
e|-------------------------------------------------------------------|
B|-------------------------------------------------------------------|
G|-------------------------------------------------------------------|
D|-0-------------------------------0------------------------0-0-0-0--|
A|-0--------3h5--------------------0--------3h5-------------0-0-0-0--|
E|-0--5-3-0-----0-6-3-0-5-3-0-5-3--0--5-3-0-----0-6-3-0-5-3-0-0-0-0--|
                                                            .....
Play (x2)
e|----------------------------------------------------------------|
B|----------------------------------------------------------------|
G|----------------------------------------------------------------|
D|----------------------------------------------------------------|
A|---3h5---3h5---3h5---3h5-3-----------3h5---3h5--3h5---3h5-6--5--|
E|-0-----0-----0-----0-------6-5-3---0-----0-----0----0-----------|
   .     .     .     .               .     .     .    .

Play (x2)
e|------------------------------------------------------------------------------|
B|------------------------------------------------------------------------------|
G|------------------------------------------------------------------------------|
D|---------------------------------8-8-8-0-------------------------------8--10--|
A|---------------------------------8-8-8-0-------------------------------8--10--|
E|-0-12-10-0-12-10-0-12-10-0-12-10-8-8-8-0-12-10-0-12-10-0-12-10-0-12-10-8--10--|

e|-------------------------------------------------------------------------|
B|-------------------------------------------------------------------------|
G|--------------------------14-14-14-12-12-12-12------------------(x4)-----|
D|-8------10------0---0-0----x--x--x--x--x--x--x--8------10-------0-0-0-0--|
A|-8------10------0---0-0---12-12-12-10-10-10-10--8------10-------0-0-0-0--|
E|-8------10------0---0-0-------------------------8------10-------0-0-0-0--|
                      ...                                         .....
e|-------------------------------------------------------------------------|
B|-------------------------------------------------------------------------|
G|--------------------------14-14-14-12-12-12-12------------------(x16)----|
D|-8------10------0---0-0----x--x--x--x--x--x--x--8------10-------0-0-0-0--|
A|-8------10------0---0-0---12-12-12-10-10-10-10--8------10-------0-0-0-0--|
E|-8------10------0---0-0-------------------------8------10-------0-0-0-0--|
                      ...                                         .....
Play (x4)
e|----------------------------------------------------------------|
B|----------------------------------------------------------------|
G|----------------------------------------------------------------|
D|-0-0---------0-0-----------------0-0---------0-0----------------|
A|-0-0-8-6-3h5-0-0-8-6-3h5-3-------0-0-8-6-3h5-0-0-8-6-3h5-3------|
E|-0-0---------0-0-----------6-5-3-0-0---------0-0-----------6-5--|
   ...         ...                 ...         ...

e|--------------------------------------------------------------|
B|--------------------------------------------------------------|
G|--------------------------------------------------------------|
D|-0------------------------------0------------------------x-x--|
A|-0--------3h5-------------------0--------3h5-------------x-x--|
E|-0--5-3-0-----0-6-3-0-5-3-0-5-3-0--5-3-0-----0-6-3-0-5-3-x-x--|

e|------------------------------------------------------------------|
B|------------------------------------------------------------------|
G|------------------------------------------------------------------|
D|-0------------------------------0------------------------0-0-0-0--|
A|-0--------3h5-------------------0--------3h5-------------0-0-0-0--|
E|-0--5-3-0-----0-6-3-0-5-3-0-5-3-0--5-3-0-----0-6-3-0-5-3-0-0-0-0--|
                                                           .....
e|-------------------------------------------------------------------------|
B|-------------------------------------------------------------------------|
G|--------------------------14-14-14-12-12-12-12------------------(x8)-----|
D|-8------10------0---0-0----x--x--x--x--x--x--x--8------10-------0-0-0-0--|
A|-8------10------0---0-0---12-12-12-10-10-10-10--8------10-------0-0-0-0--|
E|-8------10------0---0-0-------------------------8------10-------0-0-0-0--|
                      ...                                         .....

e|------------------------------------|
B|------------------------------------|
G|------------------------------------|
D|-0-0---------0-0-----------------0--|
A|-0-0-8-6-3h5-0-0-8-6-3h5-3-------0--|
E|-0-0---------0-0-----------6-5-3-0--|
   ...         ...


| .  palm mute
| /  slide up
| \  slide down
| h  hammer-on
| p  pull-off
| ~  vibrato
| +  harmonic
| x  Mute note
===============================================================================
            
Submit corrections

comments powered by Disqus
↑ Back to top | Inhale Exhale Tabs for Frail Dreams And Rude Awakenings. Lyrics for acoustic guitar and electric guitar. Tablatures and chords are parodies/interpretations of the original songs. You may use it for private study, scholarship, research or language learning purposes only